ISO-10303-21;
HEADER;
/* Generated by software containing ST-Developer
 * from STEP Tools, Inc. (www.steptools.com) 
 */

FILE_DESCRIPTION(
/* description */ (''),
/* implementation_level */ '2;1');

FILE_NAME(
/* name */ 'Z:\\Geberit\\Export\\NewStep\\36148.stp',
/* time_stamp */ '2014-04-01T21:05:29+02:00',
/* author */ ('bruh'),
/* organization */ (''),
/* preprocessor_version */ 'ST-DEVELOPER v15.2',
/* originating_system */ 'Autodesk Inventor 2014',
/* authorisation */ '');

FILE_SCHEMA (('AUTOMOTIVE_DESIGN { 1 0 10303 214 3 1 1 }'));
ENDSEC;

DATA;
#10=SHAPE_REPRESENTATION_RELATIONSHIP('SRR','None',#229,#11);
#11=ADVANCED_BREP_SHAPE_REPRESENTATION($,(#124),#220);
#12=STYLED_ITEM($,(#237),#124);
#13=CYLINDRICAL_SURFACE($,#131,55.);
#14=CYLINDRICAL_SURFACE($,#135,54.);
#15=CYLINDRICAL_SURFACE($,#139,79.);
#16=CYLINDRICAL_SURFACE($,#141,52.);
#17=PLANE($,#129);
#18=PLANE($,#144);
#19=PLANE($,#145);
#20=FACE_BOUND($,#41,.T.);
#21=FACE_BOUND($,#43,.T.);
#22=FACE_BOUND($,#45,.T.);
#23=FACE_BOUND($,#47,.T.);
#24=FACE_BOUND($,#49,.T.);
#25=FACE_BOUND($,#51,.T.);
#26=FACE_BOUND($,#53,.T.);
#27=FACE_BOUND($,#55,.T.);
#28=FACE_BOUND($,#57,.T.);
#29=FACE_BOUND($,#58,.T.);
#30=FACE_BOUND($,#59,.T.);
#31=FACE_OUTER_BOUND($,#40,.T.);
#32=FACE_OUTER_BOUND($,#42,.T.);
#33=FACE_OUTER_BOUND($,#44,.T.);
#34=FACE_OUTER_BOUND($,#46,.T.);
#35=FACE_OUTER_BOUND($,#48,.T.);
#36=FACE_OUTER_BOUND($,#50,.T.);
#37=FACE_OUTER_BOUND($,#52,.T.);
#38=FACE_OUTER_BOUND($,#54,.T.);
#39=FACE_OUTER_BOUND($,#56,.T.);
#40=EDGE_LOOP($,(#90));
#41=EDGE_LOOP($,(#91));
#42=EDGE_LOOP($,(#92));
#43=EDGE_LOOP($,(#93));
#44=EDGE_LOOP($,(#94));
#45=EDGE_LOOP($,(#95));
#46=EDGE_LOOP($,(#96));
#47=EDGE_LOOP($,(#97));
#48=EDGE_LOOP($,(#98));
#49=EDGE_LOOP($,(#99));
#50=EDGE_LOOP($,(#100));
#51=EDGE_LOOP($,(#101));
#52=EDGE_LOOP($,(#102));
#53=EDGE_LOOP($,(#103));
#54=EDGE_LOOP($,(#104));
#55=EDGE_LOOP($,(#105));
#56=EDGE_LOOP($,(#106));
#57=EDGE_LOOP($,(#107));
#58=EDGE_LOOP($,(#108));
#59=EDGE_LOOP($,(#109));
#60=CIRCLE($,#127,55.);
#61=CIRCLE($,#128,60.);
#62=CIRCLE($,#130,77.);
#63=CIRCLE($,#132,55.);
#64=CIRCLE($,#134,54.);
#65=CIRCLE($,#136,54.);
#66=CIRCLE($,#138,79.);
#67=CIRCLE($,#140,79.);
#68=CIRCLE($,#142,52.);
#69=CIRCLE($,#143,52.);
#70=VERTEX_POINT($,#190);
#71=VERTEX_POINT($,#192);
#72=VERTEX_POINT($,#195);
#73=VERTEX_POINT($,#198);
#74=VERTEX_POINT($,#201);
#75=VERTEX_POINT($,#204);
#76=VERTEX_POINT($,#207);
#77=VERTEX_POINT($,#210);
#78=VERTEX_POINT($,#213);
#79=VERTEX_POINT($,#215);
#80=EDGE_CURVE($,#70,#70,#60,.T.);
#81=EDGE_CURVE($,#71,#71,#61,.T.);
#82=EDGE_CURVE($,#72,#72,#62,.T.);
#83=EDGE_CURVE($,#73,#73,#63,.T.);
#84=EDGE_CURVE($,#74,#74,#64,.T.);
#85=EDGE_CURVE($,#75,#75,#65,.T.);
#86=EDGE_CURVE($,#76,#76,#66,.T.);
#87=EDGE_CURVE($,#77,#77,#67,.T.);
#88=EDGE_CURVE($,#78,#78,#68,.T.);
#89=EDGE_CURVE($,#79,#79,#69,.T.);
#90=ORIENTED_EDGE($,*,*,#80,.T.);
#91=ORIENTED_EDGE($,*,*,#81,.T.);
#92=ORIENTED_EDGE($,*,*,#82,.F.);
#93=ORIENTED_EDGE($,*,*,#81,.F.);
#94=ORIENTED_EDGE($,*,*,#83,.T.);
#95=ORIENTED_EDGE($,*,*,#80,.F.);
#96=ORIENTED_EDGE($,*,*,#84,.T.);
#97=ORIENTED_EDGE($,*,*,#83,.F.);
#98=ORIENTED_EDGE($,*,*,#85,.T.);
#99=ORIENTED_EDGE($,*,*,#84,.F.);
#100=ORIENTED_EDGE($,*,*,#82,.T.);
#101=ORIENTED_EDGE($,*,*,#86,.T.);
#102=ORIENTED_EDGE($,*,*,#87,.F.);
#103=ORIENTED_EDGE($,*,*,#86,.F.);
#104=ORIENTED_EDGE($,*,*,#88,.F.);
#105=ORIENTED_EDGE($,*,*,#89,.T.);
#106=ORIENTED_EDGE($,*,*,#85,.F.);
#107=ORIENTED_EDGE($,*,*,#88,.T.);
#108=ORIENTED_EDGE($,*,*,#89,.F.);
#109=ORIENTED_EDGE($,*,*,#87,.T.);
#110=TOROIDAL_SURFACE($,#126,60.,5.);
#111=TOROIDAL_SURFACE($,#133,56.,2.);
#112=TOROIDAL_SURFACE($,#137,77.,2.);
#113=ADVANCED_FACE($,(#31,#20),#110,.F.);
#114=ADVANCED_FACE($,(#32,#21),#17,.T.);
#115=ADVANCED_FACE($,(#33,#22),#13,.T.);
#116=ADVANCED_FACE($,(#34,#23),#111,.F.);
#117=ADVANCED_FACE($,(#35,#24),#14,.T.);
#118=ADVANCED_FACE($,(#36,#25),#112,.T.);
#119=ADVANCED_FACE($,(#37,#26),#15,.T.);
#120=ADVANCED_FACE($,(#38,#27),#16,.F.);
#121=ADVANCED_FACE($,(#39,#28),#18,.T.);
#122=ADVANCED_FACE($,(#29,#30),#19,.T.);
#123=CLOSED_SHELL($,(#113,#114,#115,#116,#117,#118,#119,#120,#121,#122));
#124=MANIFOLD_SOLID_BREP('Volumenk\X\F6rper1',#123);
#125=AXIS2_PLACEMENT_3D('placement',#188,#146,#147);
#126=AXIS2_PLACEMENT_3D($,#189,#148,#149);
#127=AXIS2_PLACEMENT_3D($,#191,#150,#151);
#128=AXIS2_PLACEMENT_3D($,#193,#152,#153);
#129=AXIS2_PLACEMENT_3D($,#194,#154,#155);
#130=AXIS2_PLACEMENT_3D($,#196,#156,#157);
#131=AXIS2_PLACEMENT_3D($,#197,#158,#159);
#132=AXIS2_PLACEMENT_3D($,#199,#160,#161);
#133=AXIS2_PLACEMENT_3D($,#200,#162,#163);
#134=AXIS2_PLACEMENT_3D($,#202,#164,#165);
#135=AXIS2_PLACEMENT_3D($,#203,#166,#167);
#136=AXIS2_PLACEMENT_3D($,#205,#168,#169);
#137=AXIS2_PLACEMENT_3D($,#206,#170,#171);
#138=AXIS2_PLACEMENT_3D($,#208,#172,#173);
#139=AXIS2_PLACEMENT_3D($,#209,#174,#175);
#140=AXIS2_PLACEMENT_3D($,#211,#176,#177);
#141=AXIS2_PLACEMENT_3D($,#212,#178,#179);
#142=AXIS2_PLACEMENT_3D($,#214,#180,#181);
#143=AXIS2_PLACEMENT_3D($,#216,#182,#183);
#144=AXIS2_PLACEMENT_3D($,#217,#184,#185);
#145=AXIS2_PLACEMENT_3D($,#218,#186,#187);
#146=DIRECTION('axis',(0.,0.,1.));
#147=DIRECTION('refdir',(1.,0.,0.));
#148=DIRECTION('center_axis',(-1.,-4.44379470857356E-016,0.));
#149=DIRECTION('ref_axis',(0.,0.,1.));
#150=DIRECTION('center_axis',(-1.,-4.44379470857356E-016,0.));
#151=DIRECTION('ref_axis',(-4.44089209850063E-016,1.,1.22460635382238E-016));
#152=DIRECTION('center_axis',(1.,4.44379470857356E-016,0.));
#153=DIRECTION('ref_axis',(-4.44379470857356E-016,1.,1.22460635382238E-016));
#154=DIRECTION('center_axis',(1.,4.44379470857356E-016,0.));
#155=DIRECTION('ref_axis',(0.,0.,-1.));
#156=DIRECTION('center_axis',(-1.,-4.44379470857356E-016,0.));
#157=DIRECTION('ref_axis',(-4.44379470857356E-016,1.,1.22460635382238E-016));
#158=DIRECTION('center_axis',(-1.,-4.44379470857356E-016,0.));
#159=DIRECTION('ref_axis',(4.44379470857356E-016,-1.,0.));
#160=DIRECTION('center_axis',(-1.,-4.44379470857356E-016,0.));
#161=DIRECTION('ref_axis',(4.44379470857356E-016,-1.,0.));
#162=DIRECTION('center_axis',(-1.,-4.75809867696496E-016,-3.71152256840709E-033));
#163=DIRECTION('ref_axis',(4.90029472938E-016,-1.,-1.18087041261444E-016));
#164=DIRECTION('center_axis',(-1.,-4.75809867696496E-016,-3.71152256840709E-033));
#165=DIRECTION('ref_axis',(4.75809867696496E-016,-1.,-1.18087041261444E-016));
#166=DIRECTION('center_axis',(-1.,-4.44379470857356E-016,0.));
#167=DIRECTION('ref_axis',(4.44379470857356E-016,-1.,0.));
#168=DIRECTION('center_axis',(-1.,-4.44379470857356E-016,0.));
#169=DIRECTION('ref_axis',(4.44379470857356E-016,-1.,0.));
#170=DIRECTION('center_axis',(-1.,-4.44379470857356E-016,0.));
#171=DIRECTION('ref_axis',(0.,0.,1.));
#172=DIRECTION('center_axis',(1.,4.44379470857356E-016,0.));
#173=DIRECTION('ref_axis',(-4.42683864249271E-016,1.,1.22460635382238E-016));
#174=DIRECTION('center_axis',(-1.,-4.44379470857356E-016,0.));
#175=DIRECTION('ref_axis',(4.44379470857356E-016,-1.,0.));
#176=DIRECTION('center_axis',(-1.,-4.44379470857356E-016,0.));
#177=DIRECTION('ref_axis',(4.44379470857356E-016,-1.,0.));
#178=DIRECTION('center_axis',(-1.,-4.44379470857356E-016,0.));
#179=DIRECTION('ref_axis',(4.44379470857356E-016,-1.,0.));
#180=DIRECTION('center_axis',(-1.,-4.44379470857356E-016,0.));
#181=DIRECTION('ref_axis',(4.44379470857356E-016,-1.,0.));
#182=DIRECTION('center_axis',(-1.,-4.44379470857356E-016,0.));
#183=DIRECTION('ref_axis',(4.44379470857356E-016,-1.,0.));
#184=DIRECTION('center_axis',(1.,4.44379470857356E-016,0.));
#185=DIRECTION('ref_axis',(0.,0.,-1.));
#186=DIRECTION('center_axis',(-1.,-4.44379470857356E-016,0.));
#187=DIRECTION('ref_axis',(0.,0.,1.));
#188=CARTESIAN_POINT('',(0.,0.,0.));
#189=CARTESIAN_POINT('Origin',(15.,6.66569206286033E-015,0.));
#190=CARTESIAN_POINT('',(15.,-55.,0.));
#191=CARTESIAN_POINT('Origin',(15.,6.66569206286033E-015,0.));
#192=CARTESIAN_POINT('',(10.,-60.,-1.46952762458685E-014));
#193=CARTESIAN_POINT('Origin',(9.99999999999998,4.44379470857355E-015,0.));
#194=CARTESIAN_POINT('Origin',(10.,-67.,0.));
#195=CARTESIAN_POINT('',(10.,-77.,1.97215226305253E-030));
#196=CARTESIAN_POINT('Origin',(9.99999999999998,4.44379470857355E-015,0.));
#197=CARTESIAN_POINT('Origin',(17.5,7.77664074000372E-015,0.));
#198=CARTESIAN_POINT('',(25.,-55.,0.));
#199=CARTESIAN_POINT('Origin',(25.,1.11094867714339E-014,0.));
#200=CARTESIAN_POINT('Origin',(26.7320508075689,1.18791745927994E-014,0.));
#201=CARTESIAN_POINT('',(26.7320508075688,54.,-2.36174082522885E-016));
#202=CARTESIAN_POINT('Origin',(26.7320508075689,1.18791745927994E-014,3.53195812445267E-048));
#203=CARTESIAN_POINT('Origin',(80.,3.55503576685884E-014,0.));
#204=CARTESIAN_POINT('',(135.,-54.,0.));
#205=CARTESIAN_POINT('Origin',(135.,5.9991228565743E-014,0.));
#206=CARTESIAN_POINT('Origin',(7.99999999999998,3.55503576685884E-015,0.));
#207=CARTESIAN_POINT('',(8.00000000000002,-79.,-1.93487803903936E-014));
#208=CARTESIAN_POINT('Origin',(7.99999999999998,3.55503576685884E-015,0.));
#209=CARTESIAN_POINT('Origin',(4.99999999999998,2.22189735428677E-015,0.));
#210=CARTESIAN_POINT('',(9.71445146547012E-015,-79.,0.));
#211=CARTESIAN_POINT('Origin',(-2.5391526732261E-014,-1.12834732135425E-029,
0.));
#212=CARTESIAN_POINT('Origin',(67.5,2.99956142828715E-014,0.));
#213=CARTESIAN_POINT('',(135.,-51.9999999999999,0.));
#214=CARTESIAN_POINT('Origin',(135.,5.9991228565743E-014,0.));
#215=CARTESIAN_POINT('',(6.66133814775094E-015,-52.,0.));
#216=CARTESIAN_POINT('Origin',(-1.64463943368315E-014,-7.30844001291261E-030,
0.));
#217=CARTESIAN_POINT('Origin',(135.,-52.9999999999999,0.));
#218=CARTESIAN_POINT('Origin',(8.18789480661053E-015,-65.5,0.));
#219=UNCERTAINTY_MEASURE_WITH_UNIT(LENGTH_MEASURE(0.01),#221,
'DISTANCE_ACCURACY_VALUE',
'Maximum model space distance between geometric entities at asserted c
onnectivities');
#220=(
GEOMETRIC_REPRESENTATION_CONTEXT(3)
GLOBAL_UNCERTAINTY_ASSIGNED_CONTEXT((#219))
GLOBAL_UNIT_ASSIGNED_CONTEXT((#221,#224,#222))
REPRESENTATION_CONTEXT('','3D')
);
#221=(
LENGTH_UNIT()
NAMED_UNIT(*)
SI_UNIT(.MILLI.,.METRE.)
);
#222=(
NAMED_UNIT(*)
SI_UNIT($,.STERADIAN.)
SOLID_ANGLE_UNIT()
);
#223=DIMENSIONAL_EXPONENTS(0.,0.,0.,0.,0.,0.,0.);
#224=(
CONVERSION_BASED_UNIT('degree',#226)
NAMED_UNIT(#223)
PLANE_ANGLE_UNIT()
);
#225=(
NAMED_UNIT(*)
PLANE_ANGLE_UNIT()
SI_UNIT($,.RADIAN.)
);
#226=PLANE_ANGLE_MEASURE_WITH_UNIT(PLANE_ANGLE_MEASURE(0.01745329252),#225);
#227=SHAPE_DEFINITION_REPRESENTATION(#228,#229);
#228=PRODUCT_DEFINITION_SHAPE('',$,#231);
#229=SHAPE_REPRESENTATION('',(#125),#220);
#230=PRODUCT_DEFINITION_CONTEXT('3D Mechanical Parts',#234,'design');
#231=PRODUCT_DEFINITION('36148','36148',#232,#230);
#232=PRODUCT_DEFINITION_FORMATION('',$,#236);
#233=APPLICATION_PROTOCOL_DEFINITION('international standard',
'automotive_design',2009,#234);
#234=APPLICATION_CONTEXT(
'Core Data for Automotive Mechanical Design Process');
#235=PRODUCT_CONTEXT('3D Mechanical Parts',#234,'mechanical');
#236=PRODUCT('36148','36148',$,(#235));
#237=PRESENTATION_STYLE_ASSIGNMENT((#238));
#238=SURFACE_STYLE_USAGE(.BOTH.,#239);
#239=SURFACE_SIDE_STYLE($,(#240));
#240=SURFACE_STYLE_FILL_AREA(#241);
#241=FILL_AREA_STYLE($,(#242));
#242=FILL_AREA_STYLE_COLOUR($,#243);
#243=COLOUR_RGB('',1.,1.,1.);
ENDSEC;
END-ISO-10303-21;
