ISO-10303-21;
HEADER;
FILE_DESCRIPTION (( 'STEP AP214' ),
    '1' );
FILE_NAME ('CR 2.5''''x1.5''''.STEP',
    '2026-01-13T08:29:15',
    ( '' ),
    ( '' ),
    'SwSTEP 2.0',
    'SolidWorks 2018',
    '' );
FILE_SCHEMA (( 'AUTOMOTIVE_DESIGN' ));
ENDSEC;

DATA;
#1 = SURFACE_STYLE_FILL_AREA ( #82 ) ;
#2 = VERTEX_POINT ( 'NONE', #88 ) ;
#3 = FACE_OUTER_BOUND ( 'NONE', #159, .T. ) ;
#4 = CIRCLE ( 'NONE', #129, 30.10000000000000142 ) ;
#5 =( GEOMETRIC_REPRESENTATION_CONTEXT ( 3 ) GLOBAL_UNCERTAINTY_ASSIGNED_CONTEXT ( ( #43 ) ) GLOBAL_UNIT_ASSIGNED_CONTEXT ( ( #172, #182, #101 ) ) REPRESENTATION_CONTEXT ( 'NONE', 'WORKASPACE' ) );
#6 = EDGE_LOOP ( 'NONE', ( #63, #173, #185, #179 ) ) ;
#7 = EDGE_LOOP ( 'NONE', ( #199, #202 ) ) ;
#8 = DIRECTION ( 'NONE',  ( -1.000000000000000000, -0.0000000000000000000, -0.0000000000000000000 ) ) ;
#9 = CIRCLE ( 'NONE', #81, 19.05000000000000071 ) ;
#10 = CARTESIAN_POINT ( 'NONE',  ( 48.00000000000000000, -6.989626563786783819, 0.0000000000000000000 ) ) ;
#11 = CARTESIAN_POINT ( 'NONE',  ( 0.0000000000000000000, -6.989626563786783819, 30.10000000000000142 ) ) ;
#12 = DIRECTION ( 'NONE',  ( -1.000000000000000000, -0.0000000000000000000, -0.0000000000000000000 ) ) ;
#13 = CONICAL_SURFACE ( 'NONE', #83, 30.10000000000000142, 0.2586563641052967433 ) ;
#14 = APPLICATION_PROTOCOL_DEFINITION ( 'draft international standard', 'automotive_design', 1998, #65 ) ;
#15 = VERTEX_POINT ( 'NONE', #11 ) ;
#16 = ORIENTED_EDGE ( 'NONE', *, *, #166, .T. ) ;
#17 = DIRECTION ( 'NONE',  ( -1.000000000000000000, 0.0000000000000000000, -0.0000000000000000000 ) ) ;
#18 = PRODUCT_DEFINITION_CONTEXT ( 'detailed design', #169, 'design' ) ;
#19 = AXIS2_PLACEMENT_3D ( 'NONE', #45, #163, #30 ) ;
#20 = EDGE_CURVE ( 'NONE', #2, #22, #131, .T. ) ;
#21 = VERTEX_POINT ( 'NONE', #158 ) ;
#22 = VERTEX_POINT ( 'NONE', #150 ) ;
#23 = AXIS2_PLACEMENT_3D ( 'NONE', #74, #115, #193 ) ;
#24 = CARTESIAN_POINT ( 'NONE',  ( 0.0000000000000000000, -6.989626563786780267, -30.10000000000000142 ) ) ;
#25 = CARTESIAN_POINT ( 'NONE',  ( 0.0000000000000000000, -6.989626563786783819, 0.0000000000000000000 ) ) ;
#26 = DIRECTION ( 'NONE',  ( 0.0000000000000000000, 0.0000000000000000000, 1.000000000000000000 ) ) ;
#27 = PRESENTATION_STYLE_ASSIGNMENT (( #140 ) ) ;
#28 = EDGE_CURVE ( 'NONE', #64, #168, #9, .T. ) ;
#29 = DIRECTION ( 'NONE',  ( 0.0000000000000000000, 0.0000000000000000000, 1.000000000000000000 ) ) ;
#30 = DIRECTION ( 'NONE',  ( 0.0000000000000000000, 0.0000000000000000000, 1.000000000000000000 ) ) ;
#31 = CARTESIAN_POINT ( 'NONE',  ( 48.00000000000000000, -6.989626563786783819, 0.0000000000000000000 ) ) ;
#32 = ORIENTED_EDGE ( 'NONE', *, *, #28, .F. ) ;
#33 = DIRECTION ( 'NONE',  ( 0.0000000000000000000, 0.0000000000000000000, 1.000000000000000000 ) ) ;
#34 = VECTOR ( 'NONE', #175, 1000.000000000000227 ) ;
#35 = EDGE_CURVE ( 'NONE', #144, #21, #201, .T. ) ;
#36 = ORIENTED_EDGE ( 'NONE', *, *, #35, .F. ) ;
#37 = CLOSED_SHELL ( 'NONE', ( #38, #104, #102, #51, #86, #98 ) ) ;
#38 = ADVANCED_FACE ( 'NONE', ( #160 ), #142, .F. ) ;
#39 = ORIENTED_EDGE ( 'NONE', *, *, #124, .F. ) ;
#40 = CONICAL_SURFACE ( 'NONE', #132, 19.05000000000000071, 0.2586563641052966878 ) ;
#41 = EDGE_CURVE ( 'NONE', #168, #2, #165, .T. ) ;
#42 = DIRECTION ( 'NONE',  ( 1.000000000000000000, 0.0000000000000000000, 0.0000000000000000000 ) ) ;
#43 = UNCERTAINTY_MEASURE_WITH_UNIT (LENGTH_MEASURE( 1.000000000000000082E-05 ), #172, 'distance_accuracy_value', 'NONE');
#44 = DIRECTION ( 'NONE',  ( 0.0000000000000000000, 0.0000000000000000000, 1.000000000000000000 ) ) ;
#45 = CARTESIAN_POINT ( 'NONE',  ( 0.0000000000000000000, -6.989626563786783819, 0.0000000000000000000 ) ) ;
#46 = CARTESIAN_POINT ( 'NONE',  ( 0.0000000000000000000, 24.76037343621321796, 0.0000000000000000000 ) ) ;
#47 = PRESENTATION_LAYER_ASSIGNMENT (  '', '', ( #157 ) ) ;
#48 = CARTESIAN_POINT ( 'NONE',  ( 0.0000000000000000000, -6.989626563786783819, 30.10000000000000142 ) ) ;
#49 = LINE ( 'NONE', #152, #164 ) ;
#50 = AXIS2_PLACEMENT_3D ( 'NONE', #25, #176, #113 ) ;
#51 = ADVANCED_FACE ( 'NONE', ( #70, #141 ), #117, .F. ) ;
#52 =( GEOMETRIC_REPRESENTATION_CONTEXT ( 3 ) GLOBAL_UNCERTAINTY_ASSIGNED_CONTEXT ( ( #105 ) ) GLOBAL_UNIT_ASSIGNED_CONTEXT ( ( #119, #178, #198 ) ) REPRESENTATION_CONTEXT ( 'NONE', 'WORKASPACE' ) );
#53 = MANIFOLD_SOLID_BREP ( 'Revolve1', #37 ) ;
#54 = PRODUCT ( 'CR 2.5''''''''x1.5''''''''', 'CR 2.5''''''''x1.5''''''''', '', ( #213 ) ) ;
#55 = SHAPE_DEFINITION_REPRESENTATION ( #106, #95 ) ;
#56 = ORIENTED_EDGE ( 'NONE', *, *, #60, .T. ) ;
#57 = CARTESIAN_POINT ( 'NONE',  ( 0.0000000000000000000, -6.989626563786783819, 0.0000000000000000000 ) ) ;
#58 = STYLED_ITEM ( 'NONE', ( #27 ), #53 ) ;
#59 = DIRECTION ( 'NONE',  ( -1.000000000000000000, -0.0000000000000000000, -0.0000000000000000000 ) ) ;
#60 = EDGE_CURVE ( 'NONE', #64, #22, #49, .T. ) ;
#61 = DIRECTION ( 'NONE',  ( 0.0000000000000000000, 0.0000000000000000000, 1.000000000000000000 ) ) ;
#62 = COLOUR_RGB ( '',0.7921568627450980005, 0.8196078431372548767, 0.9333333333333333481 ) ;
#63 = ORIENTED_EDGE ( 'NONE', *, *, #28, .T. ) ;
#64 = VERTEX_POINT ( 'NONE', #73 ) ;
#65 = APPLICATION_CONTEXT ( 'automotive_design' ) ;
#66 = ORIENTED_EDGE ( 'NONE', *, *, #20, .T. ) ;
#67 = AXIS2_PLACEMENT_3D ( 'NONE', #125, #17, #87 ) ;
#68 = CONICAL_SURFACE ( 'NONE', #200, 19.05000000000000071, 0.2586563641052966878 ) ;
#69 = EDGE_LOOP ( 'NONE', ( #156, #36, #97, #147 ) ) ;
#70 = FACE_OUTER_BOUND ( 'NONE', #146, .T. ) ;
#71 = ORIENTED_EDGE ( 'NONE', *, *, #107, .T. ) ;
#72 = DIRECTION ( 'NONE',  ( 0.0000000000000000000, 0.0000000000000000000, 1.000000000000000000 ) ) ;
#73 = CARTESIAN_POINT ( 'NONE',  ( 48.00000000000000000, -6.989626563786783819, 19.05000000000000071 ) ) ;
#74 = CARTESIAN_POINT ( 'NONE',  ( 48.00000000000000000, -6.989626563786783819, 0.0000000000000000000 ) ) ;
#75 = CIRCLE ( 'NONE', #89, 19.05000000000000071 ) ;
#76 = CARTESIAN_POINT ( 'NONE',  ( 48.00000000000000000, -6.989626563786783819, 0.0000000000000000000 ) ) ;
#77 = CARTESIAN_POINT ( 'NONE',  ( 48.00000000000000000, -6.989626563786781155, -19.05000000000000071 ) ) ;
#78 = PRESENTATION_LAYER_ASSIGNMENT (  '', '', ( #58 ) ) ;
#79 = DIRECTION ( 'NONE',  ( -1.000000000000000000, -0.0000000000000000000, -0.0000000000000000000 ) ) ;
#80 = UNCERTAINTY_MEASURE_WITH_UNIT (LENGTH_MEASURE( 1.000000000000000082E-05 ), #154, 'distance_accuracy_value', 'NONE');
#81 = AXIS2_PLACEMENT_3D ( 'NONE', #195, #94, #209 ) ;
#82 = FILL_AREA_STYLE ('',( #96 ) ) ;
#83 = AXIS2_PLACEMENT_3D ( 'NONE', #111, #210, #26 ) ;
#84 = FACE_OUTER_BOUND ( 'NONE', #186, .T. ) ;
#85 = DIRECTION ( 'NONE',  ( 1.000000000000000000, 0.0000000000000000000, 0.0000000000000000000 ) ) ;
#86 = ADVANCED_FACE ( 'NONE', ( #205 ), #13, .F. ) ;
#87 = DIRECTION ( 'NONE',  ( -0.0000000000000000000, 0.0000000000000000000, 1.000000000000000000 ) ) ;
#88 = CARTESIAN_POINT ( 'NONE',  ( 0.0000000000000000000, -6.989626563786779379, -31.75000000000000000 ) ) ;
#89 = AXIS2_PLACEMENT_3D ( 'NONE', #76, #8, #130 ) ;
#90 = SURFACE_STYLE_FILL_AREA ( #103 ) ;
#91 = CARTESIAN_POINT ( 'NONE',  ( 48.00000000000000000, -6.989626563786783819, 0.0000000000000000000 ) ) ;
#92 = MECHANICAL_DESIGN_GEOMETRIC_PRESENTATION_REPRESENTATION (  '', ( #157 ), #52 ) ;
#93 = CARTESIAN_POINT ( 'NONE',  ( 48.00000000000000000, -6.989626563786783819, 17.39999999999999858 ) ) ;
#94 = DIRECTION ( 'NONE',  ( -1.000000000000000000, -0.0000000000000000000, -0.0000000000000000000 ) ) ;
#95 = ADVANCED_BREP_SHAPE_REPRESENTATION ( 'CR 2.5''''''''x1.5''''''''', ( #53, #109 ), #116 ) ;
#96 = FILL_AREA_STYLE_COLOUR ( '', #62 ) ;
#97 = ORIENTED_EDGE ( 'NONE', *, *, #203, .T. ) ;
#98 = ADVANCED_FACE ( 'NONE', ( #170, #3 ), #135, .F. ) ;
#99 = CIRCLE ( 'NONE', #143, 30.10000000000000142 ) ;
#100 = AXIS2_PLACEMENT_3D ( 'NONE', #194, #12, #29 ) ;
#101 =( NAMED_UNIT ( * ) SI_UNIT ( $, .STERADIAN. ) SOLID_ANGLE_UNIT ( ) );
#102 = ADVANCED_FACE ( 'NONE', ( #84 ), #40, .T. ) ;
#103 = FILL_AREA_STYLE ('',( #134 ) ) ;
#104 = ADVANCED_FACE ( 'NONE', ( #188 ), #68, .T. ) ;
#105 = UNCERTAINTY_MEASURE_WITH_UNIT (LENGTH_MEASURE( 1.000000000000000082E-05 ), #119, 'distance_accuracy_value', 'NONE');
#106 = PRODUCT_DEFINITION_SHAPE ( 'NONE', 'NONE',  #118 ) ;
#107 = EDGE_CURVE ( 'NONE', #21, #112, #139, .T. ) ;
#108 = ORIENTED_EDGE ( 'NONE', *, *, #208, .F. ) ;
#109 = AXIS2_PLACEMENT_3D ( 'NONE', #114, #33, #85 ) ;
#110 = ORIENTED_EDGE ( 'NONE', *, *, #153, .F. ) ;
#111 = CARTESIAN_POINT ( 'NONE',  ( 0.0000000000000000000, -6.989626563786783819, 0.0000000000000000000 ) ) ;
#112 = VERTEX_POINT ( 'NONE', #167 ) ;
#113 = DIRECTION ( 'NONE',  ( 0.0000000000000000000, 0.0000000000000000000, 1.000000000000000000 ) ) ;
#114 = CARTESIAN_POINT ( 'NONE',  ( 0.0000000000000000000, 0.0000000000000000000, 0.0000000000000000000 ) ) ;
#115 = DIRECTION ( 'NONE',  ( -1.000000000000000000, -0.0000000000000000000, -0.0000000000000000000 ) ) ;
#116 =( GEOMETRIC_REPRESENTATION_CONTEXT ( 3 ) GLOBAL_UNCERTAINTY_ASSIGNED_CONTEXT ( ( #80 ) ) GLOBAL_UNIT_ASSIGNED_CONTEXT ( ( #154, #211, #120 ) ) REPRESENTATION_CONTEXT ( 'NONE', 'WORKASPACE' ) );
#117 = PLANE ( 'NONE',  #67 ) ;
#118 = PRODUCT_DEFINITION ( 'UNKNOWN', '', #126, #18 ) ;
#119 =( LENGTH_UNIT ( ) NAMED_UNIT ( * ) SI_UNIT ( .MILLI., .METRE. ) );
#120 =( NAMED_UNIT ( * ) SI_UNIT ( $, .STERADIAN. ) SOLID_ANGLE_UNIT ( ) );
#121 = DIRECTION ( 'NONE',  ( -1.000000000000000000, -0.0000000000000000000, -0.0000000000000000000 ) ) ;
#122 = MECHANICAL_DESIGN_GEOMETRIC_PRESENTATION_REPRESENTATION (  '', ( #58 ), #5 ) ;
#123 = CIRCLE ( 'NONE', #100, 31.75000000000000000 ) ;
#124 = EDGE_CURVE ( 'NONE', #15, #112, #99, .T. ) ;
#125 = CARTESIAN_POINT ( 'NONE',  ( 48.00000000000000000, 12.06037343621321689, 0.0000000000000000000 ) ) ;
#126 = PRODUCT_DEFINITION_FORMATION_WITH_SPECIFIED_SOURCE ( 'ANY', '', #54, .NOT_KNOWN. ) ;
#127 = SURFACE_SIDE_STYLE ('',( #90 ) ) ;
#128 = CIRCLE ( 'NONE', #214, 17.39999999999999858 ) ;
#129 = AXIS2_PLACEMENT_3D ( 'NONE', #149, #121, #138 ) ;
#130 = DIRECTION ( 'NONE',  ( 0.0000000000000000000, 0.0000000000000000000, 1.000000000000000000 ) ) ;
#131 = CIRCLE ( 'NONE', #50, 31.75000000000000000 ) ;
#132 = AXIS2_PLACEMENT_3D ( 'NONE', #10, #204, #61 ) ;
#133 = DIRECTION ( 'NONE',  ( -0.9667345283484040097, 0.0000000000000000000, 0.2557818439588485648 ) ) ;
#134 = FILL_AREA_STYLE_COLOUR ( '', #171 ) ;
#135 = PLANE ( 'NONE',  #189 ) ;
#136 = ORIENTED_EDGE ( 'NONE', *, *, #20, .F. ) ;
#137 = PRESENTATION_STYLE_ASSIGNMENT (( #180 ) ) ;
#138 = DIRECTION ( 'NONE',  ( 0.0000000000000000000, 0.0000000000000000000, 1.000000000000000000 ) ) ;
#139 = LINE ( 'NONE', #24, #151 ) ;
#140 = SURFACE_STYLE_USAGE ( .BOTH. , #127 ) ;
#141 = FACE_BOUND ( 'NONE', #7, .T. ) ;
#142 = CONICAL_SURFACE ( 'NONE', #19, 30.10000000000000142, 0.2586563641052967433 ) ;
#143 = AXIS2_PLACEMENT_3D ( 'NONE', #57, #79, #72 ) ;
#144 = VERTEX_POINT ( 'NONE', #93 ) ;
#145 = LINE ( 'NONE', #48, #34 ) ;
#146 = EDGE_LOOP ( 'NONE', ( #32, #190 ) ) ;
#147 = ORIENTED_EDGE ( 'NONE', *, *, #124, .T. ) ;
#148 = EDGE_LOOP ( 'NONE', ( #39, #108 ) ) ;
#149 = CARTESIAN_POINT ( 'NONE',  ( 0.0000000000000000000, -6.989626563786783819, 0.0000000000000000000 ) ) ;
#150 = CARTESIAN_POINT ( 'NONE',  ( 0.0000000000000000000, -6.989626563786783819, 31.75000000000000000 ) ) ;
#151 = VECTOR ( 'NONE', #174, 1000.000000000000227 ) ;
#152 = CARTESIAN_POINT ( 'NONE',  ( 48.00000000000000000, -6.989626563786783819, 19.05000000000000071 ) ) ;
#153 = EDGE_CURVE ( 'NONE', #21, #144, #128, .T. ) ;
#154 =( LENGTH_UNIT ( ) NAMED_UNIT ( * ) SI_UNIT ( .MILLI., .METRE. ) );
#155 = ORIENTED_EDGE ( 'NONE', *, *, #183, .T. ) ;
#156 = ORIENTED_EDGE ( 'NONE', *, *, #107, .F. ) ;
#157 = STYLED_ITEM ( 'NONE', ( #137 ), #95 ) ;
#158 = CARTESIAN_POINT ( 'NONE',  ( 48.00000000000000000, -6.989626563786781155, -17.39999999999999858 ) ) ;
#159 = EDGE_LOOP ( 'NONE', ( #155, #66 ) ) ;
#160 = FACE_OUTER_BOUND ( 'NONE', #184, .T. ) ;
#161 = DIRECTION ( 'NONE',  ( -1.000000000000000000, -0.0000000000000000000, -0.0000000000000000000 ) ) ;
#162 = ORIENTED_EDGE ( 'NONE', *, *, #41, .F. ) ;
#163 = DIRECTION ( 'NONE',  ( -1.000000000000000000, -0.0000000000000000000, -0.0000000000000000000 ) ) ;
#164 = VECTOR ( 'NONE', #133, 1000.000000000000227 ) ;
#165 = LINE ( 'NONE', #77, #206 ) ;
#166 = EDGE_CURVE ( 'NONE', #168, #64, #75, .T. ) ;
#167 = CARTESIAN_POINT ( 'NONE',  ( 0.0000000000000000000, -6.989626563786780267, -30.10000000000000142 ) ) ;
#168 = VERTEX_POINT ( 'NONE', #196 ) ;
#169 = APPLICATION_CONTEXT ( 'automotive_design' ) ;
#170 = FACE_BOUND ( 'NONE', #148, .T. ) ;
#171 = COLOUR_RGB ( '',0.7921568627450980005, 0.8196078431372548767, 0.9333333333333333481 ) ;
#172 =( LENGTH_UNIT ( ) NAMED_UNIT ( * ) SI_UNIT ( .MILLI., .METRE. ) );
#173 = ORIENTED_EDGE ( 'NONE', *, *, #41, .T. ) ;
#174 = DIRECTION ( 'NONE',  ( -0.9667345283484040097, 3.132424164842116778E-17, -0.2557818439588486203 ) ) ;
#175 = DIRECTION ( 'NONE',  ( -0.9667345283484040097, 0.0000000000000000000, 0.2557818439588486203 ) ) ;
#176 = DIRECTION ( 'NONE',  ( -1.000000000000000000, -0.0000000000000000000, -0.0000000000000000000 ) ) ;
#177 = DIRECTION ( 'NONE',  ( -0.9667345283484040097, 3.132424164842116162E-17, -0.2557818439588485648 ) ) ;
#178 =( NAMED_UNIT ( * ) PLANE_ANGLE_UNIT ( ) SI_UNIT ( $, .RADIAN. ) );
#179 = ORIENTED_EDGE ( 'NONE', *, *, #60, .F. ) ;
#180 = SURFACE_STYLE_USAGE ( .BOTH. , #197 ) ;
#181 = ORIENTED_EDGE ( 'NONE', *, *, #208, .T. ) ;
#182 =( NAMED_UNIT ( * ) PLANE_ANGLE_UNIT ( ) SI_UNIT ( $, .RADIAN. ) );
#183 = EDGE_CURVE ( 'NONE', #22, #2, #123, .T. ) ;
#184 = EDGE_LOOP ( 'NONE', ( #110, #71, #181, #191 ) ) ;
#185 = ORIENTED_EDGE ( 'NONE', *, *, #183, .F. ) ;
#186 = EDGE_LOOP ( 'NONE', ( #162, #16, #56, #136 ) ) ;
#187 = PRODUCT_RELATED_PRODUCT_CATEGORY ( 'part', '', ( #54 ) ) ;
#188 = FACE_OUTER_BOUND ( 'NONE', #6, .T. ) ;
#189 = AXIS2_PLACEMENT_3D ( 'NONE', #46, #42, #192 ) ;
#190 = ORIENTED_EDGE ( 'NONE', *, *, #166, .F. ) ;
#191 = ORIENTED_EDGE ( 'NONE', *, *, #203, .F. ) ;
#192 = DIRECTION ( 'NONE',  ( 0.0000000000000000000, 0.0000000000000000000, -1.000000000000000000 ) ) ;
#193 = DIRECTION ( 'NONE',  ( 0.0000000000000000000, 0.0000000000000000000, 1.000000000000000000 ) ) ;
#194 = CARTESIAN_POINT ( 'NONE',  ( 0.0000000000000000000, -6.989626563786783819, 0.0000000000000000000 ) ) ;
#195 = CARTESIAN_POINT ( 'NONE',  ( 48.00000000000000000, -6.989626563786783819, 0.0000000000000000000 ) ) ;
#196 = CARTESIAN_POINT ( 'NONE',  ( 48.00000000000000000, -6.989626563786780267, -19.05000000000000071 ) ) ;
#197 = SURFACE_SIDE_STYLE ('',( #1 ) ) ;
#198 =( NAMED_UNIT ( * ) SI_UNIT ( $, .STERADIAN. ) SOLID_ANGLE_UNIT ( ) );
#199 = ORIENTED_EDGE ( 'NONE', *, *, #35, .T. ) ;
#200 = AXIS2_PLACEMENT_3D ( 'NONE', #91, #59, #207 ) ;
#201 = CIRCLE ( 'NONE', #23, 17.39999999999999858 ) ;
#202 = ORIENTED_EDGE ( 'NONE', *, *, #153, .T. ) ;
#203 = EDGE_CURVE ( 'NONE', #144, #15, #145, .T. ) ;
#204 = DIRECTION ( 'NONE',  ( -1.000000000000000000, -0.0000000000000000000, -0.0000000000000000000 ) ) ;
#205 = FACE_OUTER_BOUND ( 'NONE', #69, .T. ) ;
#206 = VECTOR ( 'NONE', #177, 1000.000000000000227 ) ;
#207 = DIRECTION ( 'NONE',  ( 0.0000000000000000000, 0.0000000000000000000, 1.000000000000000000 ) ) ;
#208 = EDGE_CURVE ( 'NONE', #112, #15, #4, .T. ) ;
#209 = DIRECTION ( 'NONE',  ( 0.0000000000000000000, 0.0000000000000000000, 1.000000000000000000 ) ) ;
#210 = DIRECTION ( 'NONE',  ( -1.000000000000000000, -0.0000000000000000000, -0.0000000000000000000 ) ) ;
#211 =( NAMED_UNIT ( * ) PLANE_ANGLE_UNIT ( ) SI_UNIT ( $, .RADIAN. ) );
#212 = APPLICATION_PROTOCOL_DEFINITION ( 'draft international standard', 'automotive_design', 1998, #169 ) ;
#213 = PRODUCT_CONTEXT ( 'NONE', #65, 'mechanical' ) ;
#214 = AXIS2_PLACEMENT_3D ( 'NONE', #31, #161, #44 ) ;
ENDSEC;
END-ISO-10303-21;
