ISO-10303-21;
HEADER;
/* Generated by software containing ST-Developer
 * from STEP Tools, Inc. (www.steptools.com) 
 */

FILE_DESCRIPTION(
/* description */ (''),
/* implementation_level */ '2;1');

FILE_NAME(
/* name */ 
'Y:\\\X2\C124ACC4D300\X0\\\BMT-DRAW\\CADFILE 2000Ver\\APPROVAL\\CADFIL
E\\SUPERLOK\\SPC\\3D\\METRIC\\SPC-16M\\SPC-16M.stp',
/* time_stamp */ '2022-03-11T11:28:56+09:00',
/* author */ ('user'),
/* organization */ (''),
/* preprocessor_version */ 'ST-DEVELOPER v18.1',
/* originating_system */ 'Autodesk Inventor 2022',
/* authorisation */ '');

FILE_SCHEMA (('AUTOMOTIVE_DESIGN { 1 0 10303 214 3 1 1 }'));
ENDSEC;

DATA;
#10=MECHANICAL_DESIGN_GEOMETRIC_PRESENTATION_REPRESENTATION('',(#13),#465);
#11=SHAPE_REPRESENTATION_RELATIONSHIP('SRR','None',#472,#12);
#12=ADVANCED_BREP_SHAPE_REPRESENTATION('',(#14),#464);
#13=STYLED_ITEM('',(#481),#14);
#14=MANIFOLD_SOLID_BREP('\X2\C194B9ACB4DC\X0\1',#242);
#15=CONICAL_SURFACE('',#273,8.37275334660033,0.357792496658579);
#16=CONICAL_SURFACE('',#275,8.91769145362377,0.261799387799074);
#17=CONICAL_SURFACE('',#284,8.69999999999987,1.30899693899617);
#18=CONICAL_SURFACE('',#293,7.77959127411486,0.174532925199149);
#19=TOROIDAL_SURFACE('',#269,8.21645656702821,0.0999999999999091);
#20=TOROIDAL_SURFACE('',#280,8.90000000000145,0.5);
#21=TOROIDAL_SURFACE('',#287,8.5,0.5);
#22=TOROIDAL_SURFACE('',#300,7.5,0.5);
#23=LINE('',#400,#31);
#24=LINE('',#414,#32);
#25=LINE('',#418,#33);
#26=LINE('',#423,#34);
#27=LINE('',#435,#35);
#28=LINE('',#446,#36);
#29=LINE('',#450,#37);
#30=LINE('',#458,#38);
#31=VECTOR('',#312,6.);
#32=VECTOR('',#331,8.37275334660033);
#33=VECTOR('',#336,8.91769145362377);
#34=VECTOR('',#341,9.40000000000054);
#35=VECTOR('',#356,8.69999999999988);
#36=VECTOR('',#371,8.);
#37=VECTOR('',#376,7.77959127411486);
#38=VECTOR('',#385,8.);
#39=CYLINDRICAL_SURFACE('',#265,6.);
#40=CYLINDRICAL_SURFACE('',#277,9.40000000000054);
#41=CYLINDRICAL_SURFACE('',#291,8.);
#42=CYLINDRICAL_SURFACE('',#297,8.);
#43=FACE_BOUND('',#62,.T.);
#44=FACE_BOUND('',#65,.T.);
#45=FACE_BOUND('',#76,.T.);
#46=FACE_OUTER_BOUND('',#61,.T.);
#47=FACE_OUTER_BOUND('',#63,.T.);
#48=FACE_OUTER_BOUND('',#64,.T.);
#49=FACE_OUTER_BOUND('',#66,.T.);
#50=FACE_OUTER_BOUND('',#67,.T.);
#51=FACE_OUTER_BOUND('',#68,.T.);
#52=FACE_OUTER_BOUND('',#69,.T.);
#53=FACE_OUTER_BOUND('',#70,.T.);
#54=FACE_OUTER_BOUND('',#71,.T.);
#55=FACE_OUTER_BOUND('',#72,.T.);
#56=FACE_OUTER_BOUND('',#73,.T.);
#57=FACE_OUTER_BOUND('',#74,.T.);
#58=FACE_OUTER_BOUND('',#75,.T.);
#59=FACE_OUTER_BOUND('',#77,.T.);
#60=FACE_OUTER_BOUND('',#78,.T.);
#61=EDGE_LOOP('',(#158));
#62=EDGE_LOOP('',(#159));
#63=EDGE_LOOP('',(#160,#161,#162,#163));
#64=EDGE_LOOP('',(#164));
#65=EDGE_LOOP('',(#165));
#66=EDGE_LOOP('',(#166,#167,#168,#169,#170));
#67=EDGE_LOOP('',(#171,#172,#173,#174,#175));
#68=EDGE_LOOP('',(#176,#177,#178,#179));
#69=EDGE_LOOP('',(#180,#181,#182,#183,#184));
#70=EDGE_LOOP('',(#185,#186,#187,#188,#189,#190));
#71=EDGE_LOOP('',(#191,#192,#193,#194,#195,#196));
#72=EDGE_LOOP('',(#197,#198,#199,#200,#201,#202));
#73=EDGE_LOOP('',(#203,#204,#205,#206,#207));
#74=EDGE_LOOP('',(#208,#209,#210,#211));
#75=EDGE_LOOP('',(#212));
#76=EDGE_LOOP('',(#213));
#77=EDGE_LOOP('',(#214,#215,#216,#217,#218));
#78=EDGE_LOOP('',(#219,#220,#221,#222,#223));
#79=CIRCLE('',#263,7.5);
#80=CIRCLE('',#264,6.);
#81=CIRCLE('',#266,6.);
#82=CIRCLE('',#268,8.21645656702821);
#83=CIRCLE('',#270,8.31012378595276);
#84=CIRCLE('',#271,8.31012378595276);
#85=CIRCLE('',#272,0.0999999999999091);
#86=CIRCLE('',#274,8.43538290724791);
#87=CIRCLE('',#276,9.39999999999963);
#88=CIRCLE('',#278,9.40000000000145);
#89=CIRCLE('',#279,9.40000000000145);
#90=CIRCLE('',#281,9.02940952255267);
#91=CIRCLE('',#282,9.02940952255267);
#92=CIRCLE('',#283,0.5);
#93=CIRCLE('',#285,8.37059047744708);
#94=CIRCLE('',#286,8.37059047744708);
#95=CIRCLE('',#288,0.5);
#96=CIRCLE('',#289,8.);
#97=CIRCLE('',#290,8.);
#98=CIRCLE('',#292,8.);
#99=CIRCLE('',#294,7.55918254822973);
#100=CIRCLE('',#296,8.);
#101=CIRCLE('',#298,8.);
#102=CIRCLE('',#299,8.);
#103=CIRCLE('',#301,0.5);
#104=VERTEX_POINT('',#394);
#105=VERTEX_POINT('',#396);
#106=VERTEX_POINT('',#399);
#107=VERTEX_POINT('',#403);
#108=VERTEX_POINT('',#406);
#109=VERTEX_POINT('',#407);
#110=VERTEX_POINT('',#412);
#111=VERTEX_POINT('',#416);
#112=VERTEX_POINT('',#420);
#113=VERTEX_POINT('',#421);
#114=VERTEX_POINT('',#426);
#115=VERTEX_POINT('',#427);
#116=VERTEX_POINT('',#432);
#117=VERTEX_POINT('',#433);
#118=VERTEX_POINT('',#438);
#119=VERTEX_POINT('',#440);
#120=VERTEX_POINT('',#444);
#121=VERTEX_POINT('',#448);
#122=VERTEX_POINT('',#452);
#123=VERTEX_POINT('',#455);
#124=VERTEX_POINT('',#456);
#125=EDGE_CURVE('',#104,#104,#79,.T.);
#126=EDGE_CURVE('',#105,#105,#80,.T.);
#127=EDGE_CURVE('',#105,#106,#23,.T.);
#128=EDGE_CURVE('',#106,#106,#81,.T.);
#129=EDGE_CURVE('',#107,#107,#82,.T.);
#130=EDGE_CURVE('',#108,#109,#83,.T.);
#131=EDGE_CURVE('',#109,#108,#84,.T.);
#132=EDGE_CURVE('',#109,#107,#85,.T.);
#133=EDGE_CURVE('',#110,#110,#86,.T.);
#134=EDGE_CURVE('',#110,#108,#24,.T.);
#135=EDGE_CURVE('',#111,#111,#87,.T.);
#136=EDGE_CURVE('',#111,#110,#25,.T.);
#137=EDGE_CURVE('',#112,#113,#88,.T.);
#138=EDGE_CURVE('',#112,#111,#26,.T.);
#139=EDGE_CURVE('',#113,#112,#89,.T.);
#140=EDGE_CURVE('',#114,#115,#90,.T.);
#141=EDGE_CURVE('',#115,#114,#91,.T.);
#142=EDGE_CURVE('',#115,#113,#92,.T.);
#143=EDGE_CURVE('',#116,#117,#93,.T.);
#144=EDGE_CURVE('',#116,#114,#27,.T.);
#145=EDGE_CURVE('',#117,#116,#94,.T.);
#146=EDGE_CURVE('',#117,#118,#95,.T.);
#147=EDGE_CURVE('',#119,#118,#96,.T.);
#148=EDGE_CURVE('',#118,#119,#97,.T.);
#149=EDGE_CURVE('',#120,#120,#98,.T.);
#150=EDGE_CURVE('',#120,#119,#28,.T.);
#151=EDGE_CURVE('',#121,#121,#99,.T.);
#152=EDGE_CURVE('',#121,#120,#29,.T.);
#153=EDGE_CURVE('',#122,#122,#100,.T.);
#154=EDGE_CURVE('',#123,#124,#101,.T.);
#155=EDGE_CURVE('',#123,#122,#30,.T.);
#156=EDGE_CURVE('',#124,#123,#102,.T.);
#157=EDGE_CURVE('',#104,#124,#103,.T.);
#158=ORIENTED_EDGE('',*,*,#125,.T.);
#159=ORIENTED_EDGE('',*,*,#126,.F.);
#160=ORIENTED_EDGE('',*,*,#126,.T.);
#161=ORIENTED_EDGE('',*,*,#127,.T.);
#162=ORIENTED_EDGE('',*,*,#128,.F.);
#163=ORIENTED_EDGE('',*,*,#127,.F.);
#164=ORIENTED_EDGE('',*,*,#129,.F.);
#165=ORIENTED_EDGE('',*,*,#128,.T.);
#166=ORIENTED_EDGE('',*,*,#130,.F.);
#167=ORIENTED_EDGE('',*,*,#131,.F.);
#168=ORIENTED_EDGE('',*,*,#132,.T.);
#169=ORIENTED_EDGE('',*,*,#129,.T.);
#170=ORIENTED_EDGE('',*,*,#132,.F.);
#171=ORIENTED_EDGE('',*,*,#133,.F.);
#172=ORIENTED_EDGE('',*,*,#134,.T.);
#173=ORIENTED_EDGE('',*,*,#130,.T.);
#174=ORIENTED_EDGE('',*,*,#131,.T.);
#175=ORIENTED_EDGE('',*,*,#134,.F.);
#176=ORIENTED_EDGE('',*,*,#135,.F.);
#177=ORIENTED_EDGE('',*,*,#136,.T.);
#178=ORIENTED_EDGE('',*,*,#133,.T.);
#179=ORIENTED_EDGE('',*,*,#136,.F.);
#180=ORIENTED_EDGE('',*,*,#137,.F.);
#181=ORIENTED_EDGE('',*,*,#138,.T.);
#182=ORIENTED_EDGE('',*,*,#135,.T.);
#183=ORIENTED_EDGE('',*,*,#138,.F.);
#184=ORIENTED_EDGE('',*,*,#139,.F.);
#185=ORIENTED_EDGE('',*,*,#140,.F.);
#186=ORIENTED_EDGE('',*,*,#141,.F.);
#187=ORIENTED_EDGE('',*,*,#142,.T.);
#188=ORIENTED_EDGE('',*,*,#139,.T.);
#189=ORIENTED_EDGE('',*,*,#137,.T.);
#190=ORIENTED_EDGE('',*,*,#142,.F.);
#191=ORIENTED_EDGE('',*,*,#143,.F.);
#192=ORIENTED_EDGE('',*,*,#144,.T.);
#193=ORIENTED_EDGE('',*,*,#140,.T.);
#194=ORIENTED_EDGE('',*,*,#141,.T.);
#195=ORIENTED_EDGE('',*,*,#144,.F.);
#196=ORIENTED_EDGE('',*,*,#145,.F.);
#197=ORIENTED_EDGE('',*,*,#143,.T.);
#198=ORIENTED_EDGE('',*,*,#146,.T.);
#199=ORIENTED_EDGE('',*,*,#147,.F.);
#200=ORIENTED_EDGE('',*,*,#148,.F.);
#201=ORIENTED_EDGE('',*,*,#146,.F.);
#202=ORIENTED_EDGE('',*,*,#145,.T.);
#203=ORIENTED_EDGE('',*,*,#149,.F.);
#204=ORIENTED_EDGE('',*,*,#150,.T.);
#205=ORIENTED_EDGE('',*,*,#147,.T.);
#206=ORIENTED_EDGE('',*,*,#148,.T.);
#207=ORIENTED_EDGE('',*,*,#150,.F.);
#208=ORIENTED_EDGE('',*,*,#151,.F.);
#209=ORIENTED_EDGE('',*,*,#152,.T.);
#210=ORIENTED_EDGE('',*,*,#149,.T.);
#211=ORIENTED_EDGE('',*,*,#152,.F.);
#212=ORIENTED_EDGE('',*,*,#153,.F.);
#213=ORIENTED_EDGE('',*,*,#151,.T.);
#214=ORIENTED_EDGE('',*,*,#154,.F.);
#215=ORIENTED_EDGE('',*,*,#155,.T.);
#216=ORIENTED_EDGE('',*,*,#153,.T.);
#217=ORIENTED_EDGE('',*,*,#155,.F.);
#218=ORIENTED_EDGE('',*,*,#156,.F.);
#219=ORIENTED_EDGE('',*,*,#125,.F.);
#220=ORIENTED_EDGE('',*,*,#157,.T.);
#221=ORIENTED_EDGE('',*,*,#156,.T.);
#222=ORIENTED_EDGE('',*,*,#154,.T.);
#223=ORIENTED_EDGE('',*,*,#157,.F.);
#224=PLANE('',#262);
#225=PLANE('',#267);
#226=PLANE('',#295);
#227=ADVANCED_FACE('',(#46,#43),#224,.T.);
#228=ADVANCED_FACE('',(#47),#39,.F.);
#229=ADVANCED_FACE('',(#48,#44),#225,.T.);
#230=ADVANCED_FACE('',(#49),#19,.T.);
#231=ADVANCED_FACE('',(#50),#15,.T.);
#232=ADVANCED_FACE('',(#51),#16,.T.);
#233=ADVANCED_FACE('',(#52),#40,.T.);
#234=ADVANCED_FACE('',(#53),#20,.T.);
#235=ADVANCED_FACE('',(#54),#17,.T.);
#236=ADVANCED_FACE('',(#55),#21,.F.);
#237=ADVANCED_FACE('',(#56),#41,.T.);
#238=ADVANCED_FACE('',(#57),#18,.T.);
#239=ADVANCED_FACE('',(#58,#45),#226,.T.);
#240=ADVANCED_FACE('',(#59),#42,.T.);
#241=ADVANCED_FACE('',(#60),#22,.T.);
#242=CLOSED_SHELL('',(#227,#228,#229,#230,#231,#232,#233,#234,#235,#236,
#237,#238,#239,#240,#241));
#243=DERIVED_UNIT_ELEMENT(#245,1.);
#244=DERIVED_UNIT_ELEMENT(#467,-3.);
#245=(
MASS_UNIT()
NAMED_UNIT(*)
SI_UNIT($,.GRAM.)
);
#246=DERIVED_UNIT((#243,#244));
#247=MEASURE_REPRESENTATION_ITEM('density measure',
POSITIVE_RATIO_MEASURE(1.),#246);
#248=PROPERTY_DEFINITION_REPRESENTATION(#253,#250);
#249=PROPERTY_DEFINITION_REPRESENTATION(#254,#251);
#250=REPRESENTATION('material name',(#252),#464);
#251=REPRESENTATION('density',(#247),#464);
#252=DESCRIPTIVE_REPRESENTATION_ITEM('\X2\C77CBC18\X0\','\X2\C77CBC18\X0\');
#253=PROPERTY_DEFINITION('material property','material name',#474);
#254=PROPERTY_DEFINITION('material property','density of part',#474);
#255=DATE_TIME_ROLE('creation_date');
#256=APPLIED_DATE_AND_TIME_ASSIGNMENT(#257,#255,(#474));
#257=DATE_AND_TIME(#258,#259);
#258=CALENDAR_DATE(2022,11,3);
#259=LOCAL_TIME(0,0,0.,#260);
#260=COORDINATED_UNIVERSAL_TIME_OFFSET(0,0,.BEHIND.);
#261=AXIS2_PLACEMENT_3D('placement',#392,#302,#303);
#262=AXIS2_PLACEMENT_3D('',#393,#304,#305);
#263=AXIS2_PLACEMENT_3D('',#395,#306,#307);
#264=AXIS2_PLACEMENT_3D('',#397,#308,#309);
#265=AXIS2_PLACEMENT_3D('',#398,#310,#311);
#266=AXIS2_PLACEMENT_3D('',#401,#313,#314);
#267=AXIS2_PLACEMENT_3D('',#402,#315,#316);
#268=AXIS2_PLACEMENT_3D('',#404,#317,#318);
#269=AXIS2_PLACEMENT_3D('',#405,#319,#320);
#270=AXIS2_PLACEMENT_3D('',#408,#321,#322);
#271=AXIS2_PLACEMENT_3D('',#409,#323,#324);
#272=AXIS2_PLACEMENT_3D('',#410,#325,#326);
#273=AXIS2_PLACEMENT_3D('',#411,#327,#328);
#274=AXIS2_PLACEMENT_3D('',#413,#329,#330);
#275=AXIS2_PLACEMENT_3D('',#415,#332,#333);
#276=AXIS2_PLACEMENT_3D('',#417,#334,#335);
#277=AXIS2_PLACEMENT_3D('',#419,#337,#338);
#278=AXIS2_PLACEMENT_3D('',#422,#339,#340);
#279=AXIS2_PLACEMENT_3D('',#424,#342,#343);
#280=AXIS2_PLACEMENT_3D('',#425,#344,#345);
#281=AXIS2_PLACEMENT_3D('',#428,#346,#347);
#282=AXIS2_PLACEMENT_3D('',#429,#348,#349);
#283=AXIS2_PLACEMENT_3D('',#430,#350,#351);
#284=AXIS2_PLACEMENT_3D('',#431,#352,#353);
#285=AXIS2_PLACEMENT_3D('',#434,#354,#355);
#286=AXIS2_PLACEMENT_3D('',#436,#357,#358);
#287=AXIS2_PLACEMENT_3D('',#437,#359,#360);
#288=AXIS2_PLACEMENT_3D('',#439,#361,#362);
#289=AXIS2_PLACEMENT_3D('',#441,#363,#364);
#290=AXIS2_PLACEMENT_3D('',#442,#365,#366);
#291=AXIS2_PLACEMENT_3D('',#443,#367,#368);
#292=AXIS2_PLACEMENT_3D('',#445,#369,#370);
#293=AXIS2_PLACEMENT_3D('',#447,#372,#373);
#294=AXIS2_PLACEMENT_3D('',#449,#374,#375);
#295=AXIS2_PLACEMENT_3D('',#451,#377,#378);
#296=AXIS2_PLACEMENT_3D('',#453,#379,#380);
#297=AXIS2_PLACEMENT_3D('',#454,#381,#382);
#298=AXIS2_PLACEMENT_3D('',#457,#383,#384);
#299=AXIS2_PLACEMENT_3D('',#459,#386,#387);
#300=AXIS2_PLACEMENT_3D('',#460,#388,#389);
#301=AXIS2_PLACEMENT_3D('',#461,#390,#391);
#302=DIRECTION('axis',(0.,0.,1.));
#303=DIRECTION('refdir',(1.,0.,0.));
#304=DIRECTION('center_axis',(1.,0.,0.));
#305=DIRECTION('ref_axis',(0.,0.,-1.));
#306=DIRECTION('center_axis',(1.,0.,0.));
#307=DIRECTION('ref_axis',(0.,0.,-1.));
#308=DIRECTION('center_axis',(1.,0.,0.));
#309=DIRECTION('ref_axis',(0.,0.,-1.));
#310=DIRECTION('center_axis',(1.,0.,0.));
#311=DIRECTION('ref_axis',(0.,1.,0.));
#312=DIRECTION('',(-1.,0.,0.));
#313=DIRECTION('center_axis',(1.,0.,0.));
#314=DIRECTION('ref_axis',(0.,0.,-1.));
#315=DIRECTION('center_axis',(-1.,0.,0.));
#316=DIRECTION('ref_axis',(0.,0.,1.));
#317=DIRECTION('center_axis',(1.,0.,0.));
#318=DIRECTION('ref_axis',(0.,0.,-1.));
#319=DIRECTION('center_axis',(1.,0.,0.));
#320=DIRECTION('ref_axis',(0.,0.,-1.));
#321=DIRECTION('center_axis',(1.,0.,0.));
#322=DIRECTION('ref_axis',(0.,0.,-1.));
#323=DIRECTION('center_axis',(1.,0.,0.));
#324=DIRECTION('ref_axis',(0.,0.,-1.));
#325=DIRECTION('center_axis',(0.,-1.,-1.22464679914735E-16));
#326=DIRECTION('ref_axis',(0.,-1.22464679914735E-16,1.));
#327=DIRECTION('center_axis',(1.,0.,0.));
#328=DIRECTION('ref_axis',(0.,1.,0.));
#329=DIRECTION('center_axis',(1.,0.,0.));
#330=DIRECTION('ref_axis',(0.,0.,-1.));
#331=DIRECTION('',(-0.936672189248488,0.350207381259226,4.28880348496888E-17));
#332=DIRECTION('center_axis',(1.,0.,0.));
#333=DIRECTION('ref_axis',(0.,1.,0.));
#334=DIRECTION('center_axis',(1.,0.,0.));
#335=DIRECTION('ref_axis',(0.,0.,-1.));
#336=DIRECTION('',(-0.965925826289088,0.258819045102448,3.16961915143087E-17));
#337=DIRECTION('center_axis',(1.,0.,0.));
#338=DIRECTION('ref_axis',(0.,1.,0.));
#339=DIRECTION('center_axis',(1.,0.,0.));
#340=DIRECTION('ref_axis',(0.,0.,-1.));
#341=DIRECTION('',(-1.,0.,0.));
#342=DIRECTION('center_axis',(1.,0.,0.));
#343=DIRECTION('ref_axis',(0.,0.,-1.));
#344=DIRECTION('center_axis',(1.,0.,0.));
#345=DIRECTION('ref_axis',(0.,0.,-1.));
#346=DIRECTION('center_axis',(1.,0.,0.));
#347=DIRECTION('ref_axis',(0.,0.,-1.));
#348=DIRECTION('center_axis',(1.,0.,0.));
#349=DIRECTION('ref_axis',(0.,0.,-1.));
#350=DIRECTION('center_axis',(0.,-1.,-1.22464679914735E-16));
#351=DIRECTION('ref_axis',(0.,-1.22464679914735E-16,1.));
#352=DIRECTION('center_axis',(-1.,0.,0.));
#353=DIRECTION('ref_axis',(0.,1.,0.));
#354=DIRECTION('center_axis',(1.,0.,0.));
#355=DIRECTION('ref_axis',(0.,0.,-1.));
#356=DIRECTION('',(-0.258819045102117,-0.965925826289176,-1.1829179713788E-16));
#357=DIRECTION('center_axis',(1.,0.,0.));
#358=DIRECTION('ref_axis',(0.,0.,-1.));
#359=DIRECTION('center_axis',(1.,0.,0.));
#360=DIRECTION('ref_axis',(0.,0.,-1.));
#361=DIRECTION('center_axis',(0.,-1.,-1.22464679914735E-16));
#362=DIRECTION('ref_axis',(0.,-1.22464679914735E-16,1.));
#363=DIRECTION('center_axis',(1.,0.,0.));
#364=DIRECTION('ref_axis',(0.,0.,-1.));
#365=DIRECTION('center_axis',(1.,0.,0.));
#366=DIRECTION('ref_axis',(0.,0.,-1.));
#367=DIRECTION('center_axis',(1.,0.,0.));
#368=DIRECTION('ref_axis',(0.,1.,0.));
#369=DIRECTION('center_axis',(1.,0.,0.));
#370=DIRECTION('ref_axis',(0.,0.,-1.));
#371=DIRECTION('',(-1.,0.,0.));
#372=DIRECTION('center_axis',(-1.,0.,0.));
#373=DIRECTION('ref_axis',(0.,1.,0.));
#374=DIRECTION('center_axis',(1.,0.,0.));
#375=DIRECTION('ref_axis',(0.,0.,-1.));
#376=DIRECTION('',(-0.984807753012257,-0.17364817766665,-2.12657684957234E-17));
#377=DIRECTION('center_axis',(-1.,0.,0.));
#378=DIRECTION('ref_axis',(0.,0.,1.));
#379=DIRECTION('center_axis',(1.,0.,0.));
#380=DIRECTION('ref_axis',(0.,0.,-1.));
#381=DIRECTION('center_axis',(1.,0.,0.));
#382=DIRECTION('ref_axis',(0.,1.,0.));
#383=DIRECTION('center_axis',(1.,0.,0.));
#384=DIRECTION('ref_axis',(0.,0.,-1.));
#385=DIRECTION('',(-1.,0.,0.));
#386=DIRECTION('center_axis',(1.,0.,0.));
#387=DIRECTION('ref_axis',(0.,0.,-1.));
#388=DIRECTION('center_axis',(1.,0.,0.));
#389=DIRECTION('ref_axis',(0.,0.,-1.));
#390=DIRECTION('center_axis',(0.,-1.,-1.22464679914735E-16));
#391=DIRECTION('ref_axis',(0.,-1.22464679914735E-16,1.));
#392=CARTESIAN_POINT('',(0.,0.,0.));
#393=CARTESIAN_POINT('Origin',(37.4000000000001,6.,0.));
#394=CARTESIAN_POINT('',(37.3999999999996,-9.18485099360515E-16,7.5));
#395=CARTESIAN_POINT('Origin',(37.3999999999996,0.,0.));
#396=CARTESIAN_POINT('',(37.4000000000001,-6.,-7.34788079488412E-16));
#397=CARTESIAN_POINT('Origin',(37.4000000000001,0.,0.));
#398=CARTESIAN_POINT('Origin',(18.7000000000001,0.,0.));
#399=CARTESIAN_POINT('',(0.,-6.,-7.34788079488412E-16));
#400=CARTESIAN_POINT('',(18.7000000000001,-6.,-7.34788079488412E-16));
#401=CARTESIAN_POINT('Origin',(0.,0.,0.));
#402=CARTESIAN_POINT('Origin',(0.,8.21645656702821,0.));
#403=CARTESIAN_POINT('',(0.,-1.00622572351444E-15,8.21645656702821));
#404=CARTESIAN_POINT('Origin',(0.,0.,0.));
#405=CARTESIAN_POINT('Origin',(0.0999999999999091,0.,0.));
#406=CARTESIAN_POINT('',(0.0649792618734273,-8.31012378595276,-1.01769664949853E-15));
#407=CARTESIAN_POINT('',(0.064979261873428,-1.01769664949853E-15,8.31012378595276));
#408=CARTESIAN_POINT('Origin',(0.064979261873428,0.,0.));
#409=CARTESIAN_POINT('Origin',(0.064979261873428,0.,0.));
#410=CARTESIAN_POINT('Origin',(0.0999999999999091,-1.00622572351444E-15,
8.21645656702821));
#411=CARTESIAN_POINT('Origin',(0.232489630936761,0.,0.));
#412=CARTESIAN_POINT('',(0.40000000000009,-8.43538290724791,-1.03303646769434E-15));
#413=CARTESIAN_POINT('Origin',(0.400000000000089,0.,0.));
#414=CARTESIAN_POINT('',(0.232489630936761,-8.37275334660033,-1.02536655859644E-15));
#415=CARTESIAN_POINT('Origin',(2.20000000000005,0.,0.));
#416=CARTESIAN_POINT('',(4.,-9.39999999999963,-1.15116799119847E-15));
#417=CARTESIAN_POINT('Origin',(4.,0.,0.));
#418=CARTESIAN_POINT('',(2.20000000000005,-8.91769145362377,-1.09210222944641E-15));
#419=CARTESIAN_POINT('Origin',(5.76158440087579,0.,0.));
#420=CARTESIAN_POINT('',(7.52316880175158,-9.40000000000054,-1.15116799119858E-15));
#421=CARTESIAN_POINT('',(7.52316880175158,-1.15116799119869E-15,9.40000000000145));
#422=CARTESIAN_POINT('Origin',(7.52316880175158,0.,0.));
#423=CARTESIAN_POINT('',(5.76158440087579,-9.40000000000054,-1.15116799119858E-15));
#424=CARTESIAN_POINT('Origin',(7.52316880175158,0.,0.));
#425=CARTESIAN_POINT('Origin',(7.52316880175158,0.,0.));
#426=CARTESIAN_POINT('',(8.00613171489613,-9.02940952255267,-1.10578374699848E-15));
#427=CARTESIAN_POINT('',(8.00613171489613,-1.10578374699847E-15,9.02940952255267));
#428=CARTESIAN_POINT('Origin',(8.00613171489613,0.,0.));
#429=CARTESIAN_POINT('Origin',(8.00613171489613,0.,0.));
#430=CARTESIAN_POINT('Origin',(7.52316880175158,-1.08993565124132E-15,8.90000000000145));
#431=CARTESIAN_POINT('Origin',(8.09439673044312,0.,0.));
#432=CARTESIAN_POINT('',(8.18266174599012,-8.37059047744708,-1.02510168351789E-15));
#433=CARTESIAN_POINT('',(8.18266174599012,-1.02510168351789E-15,8.37059047744708));
#434=CARTESIAN_POINT('Origin',(8.18266174599012,0.,0.));
#435=CARTESIAN_POINT('',(8.09439673044312,-8.69999999999987,-1.06544271525818E-15));
#436=CARTESIAN_POINT('Origin',(8.18266174599012,0.,0.));
#437=CARTESIAN_POINT('Origin',(8.66562465913421,0.,0.));
#438=CARTESIAN_POINT('',(8.66562465913421,-9.79717439317882E-16,8.));
#439=CARTESIAN_POINT('Origin',(8.66562465913421,-1.04094977927525E-15,8.5));
#440=CARTESIAN_POINT('',(8.66562465913421,-8.,-9.79717439317882E-16));
#441=CARTESIAN_POINT('Origin',(8.66562465913421,0.,0.));
#442=CARTESIAN_POINT('Origin',(8.66562465913421,0.,0.));
#443=CARTESIAN_POINT('Origin',(16.5828123295676,0.,0.));
#444=CARTESIAN_POINT('',(24.5000000000009,-8.,-9.79717439317882E-16));
#445=CARTESIAN_POINT('Origin',(24.5000000000009,0.,0.));
#446=CARTESIAN_POINT('',(16.5828123295676,-8.,-9.79717439317882E-16));
#447=CARTESIAN_POINT('Origin',(25.7500000000005,0.,0.));
#448=CARTESIAN_POINT('',(27.,-7.55918254822973,-9.25732871186007E-16));
#449=CARTESIAN_POINT('Origin',(27.,0.,0.));
#450=CARTESIAN_POINT('',(25.7500000000005,-7.77959127411486,-9.52725155251944E-16));
#451=CARTESIAN_POINT('Origin',(27.,8.,0.));
#452=CARTESIAN_POINT('',(27.,-8.,-9.79717439317882E-16));
#453=CARTESIAN_POINT('Origin',(27.,0.,0.));
#454=CARTESIAN_POINT('Origin',(31.9499999999998,0.,0.));
#455=CARTESIAN_POINT('',(36.8999999999996,-8.,-9.79717439317882E-16));
#456=CARTESIAN_POINT('',(36.8999999999996,-9.79717439317882E-16,8.));
#457=CARTESIAN_POINT('Origin',(36.8999999999996,0.,0.));
#458=CARTESIAN_POINT('',(31.9499999999998,-8.,-9.79717439317882E-16));
#459=CARTESIAN_POINT('Origin',(36.8999999999996,0.,0.));
#460=CARTESIAN_POINT('Origin',(36.8999999999996,0.,0.));
#461=CARTESIAN_POINT('Origin',(36.8999999999996,-9.18485099360514E-16,7.5));
#462=UNCERTAINTY_MEASURE_WITH_UNIT(LENGTH_MEASURE(0.01),#466,
'DISTANCE_ACCURACY_VALUE',
'Maximum model space distance between geometric entities at asserted c
onnectivities');
#463=UNCERTAINTY_MEASURE_WITH_UNIT(LENGTH_MEASURE(0.01),#466,
'DISTANCE_ACCURACY_VALUE',
'Maximum model space distance between geometric entities at asserted c
onnectivities');
#464=(
GEOMETRIC_REPRESENTATION_CONTEXT(3)
GLOBAL_UNCERTAINTY_ASSIGNED_CONTEXT((#462))
GLOBAL_UNIT_ASSIGNED_CONTEXT((#466,#468,#469))
REPRESENTATION_CONTEXT('','3D')
);
#465=(
GEOMETRIC_REPRESENTATION_CONTEXT(3)
GLOBAL_UNCERTAINTY_ASSIGNED_CONTEXT((#463))
GLOBAL_UNIT_ASSIGNED_CONTEXT((#466,#468,#469))
REPRESENTATION_CONTEXT('','3D')
);
#466=(
LENGTH_UNIT()
NAMED_UNIT(*)
SI_UNIT(.MILLI.,.METRE.)
);
#467=(
LENGTH_UNIT()
NAMED_UNIT(*)
SI_UNIT(.CENTI.,.METRE.)
);
#468=(
NAMED_UNIT(*)
PLANE_ANGLE_UNIT()
SI_UNIT($,.RADIAN.)
);
#469=(
NAMED_UNIT(*)
SI_UNIT($,.STERADIAN.)
SOLID_ANGLE_UNIT()
);
#470=SHAPE_DEFINITION_REPRESENTATION(#471,#472);
#471=PRODUCT_DEFINITION_SHAPE('',$,#474);
#472=SHAPE_REPRESENTATION('',(#261),#464);
#473=PRODUCT_DEFINITION_CONTEXT('part definition',#478,'design');
#474=PRODUCT_DEFINITION('SPC-16M','SPC-16M',#475,#473);
#475=PRODUCT_DEFINITION_FORMATION('',$,#480);
#476=PRODUCT_RELATED_PRODUCT_CATEGORY('SPC-16M','SPC-16M',(#480));
#477=APPLICATION_PROTOCOL_DEFINITION('international standard',
'automotive_design',2009,#478);
#478=APPLICATION_CONTEXT(
'Core Data for Automotive Mechanical Design Process');
#479=PRODUCT_CONTEXT('part definition',#478,'mechanical');
#480=PRODUCT('SPC-16M','SPC-16M',$,(#479));
#481=PRESENTATION_STYLE_ASSIGNMENT((#482));
#482=SURFACE_STYLE_USAGE(.BOTH.,#485);
#483=SURFACE_STYLE_RENDERING_WITH_PROPERTIES($,#489,(#484));
#484=SURFACE_STYLE_TRANSPARENT(0.);
#485=SURFACE_SIDE_STYLE('',(#486,#483));
#486=SURFACE_STYLE_FILL_AREA(#487);
#487=FILL_AREA_STYLE('',(#488));
#488=FILL_AREA_STYLE_COLOUR('',#489);
#489=COLOUR_RGB('',0.749019607843137,0.749019607843137,0.749019607843137);
ENDSEC;
END-ISO-10303-21;
