ISO-10303-21;
HEADER;
FILE_DESCRIPTION(('Creo Elements/Direct Modeling STEP Export'),'2;1');
FILE_NAME('FGN1-10.stp','2011-12-09T 9:54:35',(''),(''),
'Creo Elements/Direct Modeling STEP processor for AP214 (Solid Model)',
'Creo Elements/Direct Modeling 17.0D  15-Jul-2011 (C) Parametric Technol
ogy GmbH','');
FILE_SCHEMA(('AUTOMOTIVE_DESIGN { 1 0 10303 214 1 1 1 1 }'));
ENDSEC;
DATA;
#10=CARTESIAN_POINT('',(77.739901,44.0093840556837,-3.23285142992637));
#20=DIRECTION('',(1.,0.,0.));
#30=DIRECTION('',(0.,1.,0.));
#40=AXIS2_PLACEMENT_3D('',#10,#20,#30);
#50=PLANE('',#40);
#60=CARTESIAN_POINT('',(77.739901,46.433052,0.));
#70=DIRECTION('',(1.,0.,0.));
#80=DIRECTION('',(0.,1.,0.));
#90=AXIS2_PLACEMENT_3D('',#60,#70,#80);
#100=CIRCLE('',#90,5.);
#110=CARTESIAN_POINT('',(77.739901,51.433052,0.));
#120=VERTEX_POINT('',#110);
#130=CARTESIAN_POINT('',(77.739901,41.433052,6.12323399573677E-16));
#140=VERTEX_POINT('',#130);
#150=EDGE_CURVE('',#120,#140,#100,.T.);
#160=ORIENTED_EDGE('',*,*,#150,.T.);
#170=EDGE_CURVE('',#140,#120,#100,.T.);
#180=ORIENTED_EDGE('',*,*,#170,.T.);
#190=EDGE_LOOP('',(#180,#160));
#200=FACE_OUTER_BOUND('',#190,.T.);
#210=ADVANCED_FACE('',(#200),#50,.T.);
#220=CARTESIAN_POINT('',(79.239901,46.433052,0.));
#230=DIRECTION('',(1.,0.,0.));
#240=DIRECTION('',(0.,1.,0.));
#250=AXIS2_PLACEMENT_3D('',#220,#230,#240);
#260=CYLINDRICAL_SURFACE('',#250,5.);
#270=CARTESIAN_POINT('',(79.239901,51.433052,0.));
#280=DIRECTION('',(1.,0.,0.));
#290=VECTOR('',#280,1.);
#300=LINE('',#270,#290);
#310=CARTESIAN_POINT('',(80.739901,51.433052,0.));
#320=VERTEX_POINT('',#310);
#330=EDGE_CURVE('',#120,#320,#300,.T.);
#340=ORIENTED_EDGE('',*,*,#330,.F.);
#350=CARTESIAN_POINT('',(80.739901,46.433052,0.));
#360=DIRECTION('',(1.,0.,0.));
#370=DIRECTION('',(0.,1.,0.));
#380=AXIS2_PLACEMENT_3D('',#350,#360,#370);
#390=CIRCLE('',#380,5.);
#400=CARTESIAN_POINT('',(80.739901,41.433052,6.12323399573677E-16));
#410=VERTEX_POINT('',#400);
#420=EDGE_CURVE('',#410,#320,#390,.T.);
#430=ORIENTED_EDGE('',*,*,#420,.T.);
#440=CARTESIAN_POINT('',(79.239901,41.433052,6.12323399573677E-16));
#450=DIRECTION('',(1.,0.,0.));
#460=VECTOR('',#450,1.);
#470=LINE('',#440,#460);
#480=EDGE_CURVE('',#140,#410,#470,.T.);
#490=ORIENTED_EDGE('',*,*,#480,.T.);
#500=ORIENTED_EDGE('',*,*,#170,.F.);
#510=EDGE_LOOP('',(#500,#490,#430,#340));
#520=FACE_OUTER_BOUND('',#510,.T.);
#530=ADVANCED_FACE('',(#520),#260,.F.);
#540=CARTESIAN_POINT('',(70.739901,17.1183362076631,-41.8522566640086));
#550=DIRECTION('',(-1.,0.,0.));
#560=DIRECTION('',(0.,1.,0.));
#570=AXIS2_PLACEMENT_3D('',#540,#550,#560);
#580=PLANE('',#570);
#590=CARTESIAN_POINT('',(70.739901,46.433052,0.));
#600=DIRECTION('',(1.,0.,0.));
#610=DIRECTION('',(0.,-1.,0.));
#620=AXIS2_PLACEMENT_3D('',#590,#600,#610);
#630=CIRCLE('',#620,24.);
#640=CARTESIAN_POINT('',(70.739901,22.433052,0.));
#650=VERTEX_POINT('',#640);
#660=CARTESIAN_POINT('',(70.739901,70.433052,-2.93915231795365E-15));
#670=VERTEX_POINT('',#660);
#680=EDGE_CURVE('',#650,#670,#630,.T.);
#690=ORIENTED_EDGE('',*,*,#680,.F.);
#700=EDGE_CURVE('',#670,#650,#630,.T.);
#710=ORIENTED_EDGE('',*,*,#700,.F.);
#720=EDGE_LOOP('',(#710,#690));
#730=FACE_OUTER_BOUND('',#720,.T.);
#740=ADVANCED_FACE('',(#730),#580,.T.);
#750=CARTESIAN_POINT('',(80.739901,37.933052,0.));
#760=DIRECTION('',(-1.,0.,0.));
#770=DIRECTION('',(0.,1.,0.));
#780=AXIS2_PLACEMENT_3D('',#750,#760,#770);
#790=PLANE('',#780);
#800=EDGE_CURVE('',#320,#410,#390,.T.);
#810=ORIENTED_EDGE('',*,*,#800,.F.);
#820=ORIENTED_EDGE('',*,*,#420,.F.);
#830=EDGE_LOOP('',(#820,#810));
#840=FACE_BOUND('',#830,.T.);
#850=CARTESIAN_POINT('',(80.739901,46.433052,0.));
#860=DIRECTION('',(-1.,0.,0.));
#870=DIRECTION('',(0.,1.,0.));
#880=AXIS2_PLACEMENT_3D('',#850,#860,#870);
#890=CIRCLE('',#880,6.);
#900=CARTESIAN_POINT('',(80.739901,52.433052,0.));
#910=VERTEX_POINT('',#900);
#920=CARTESIAN_POINT('',(80.739901,40.433052,-7.34788079488412E-16));
#930=VERTEX_POINT('',#920);
#940=EDGE_CURVE('',#910,#930,#890,.T.);
#950=ORIENTED_EDGE('',*,*,#940,.F.);
#960=EDGE_CURVE('',#930,#910,#890,.T.);
#970=ORIENTED_EDGE('',*,*,#960,.F.);
#980=EDGE_LOOP('',(#970,#950));
#990=FACE_OUTER_BOUND('',#980,.T.);
#1000=ADVANCED_FACE('',(#840,#990),#790,.F.);
#1010=CARTESIAN_POINT('',(76.739901,46.433052,0.));
#1020=DIRECTION('',(-1.,0.,0.));
#1030=DIRECTION('',(0.,1.,0.));
#1040=AXIS2_PLACEMENT_3D('',#1010,#1020,#1030);
#1050=CYLINDRICAL_SURFACE('',#1040,6.);
#1060=CARTESIAN_POINT('',(76.739901,40.433052,-7.34788079488412E-16));
#1070=DIRECTION('',(-1.,0.,0.));
#1080=VECTOR('',#1070,1.);
#1090=LINE('',#1060,#1080);
#1100=CARTESIAN_POINT('',(75.739901,40.433052,-7.34788079488412E-16));
#1110=VERTEX_POINT('',#1100);
#1120=EDGE_CURVE('',#930,#1110,#1090,.T.);
#1130=ORIENTED_EDGE('',*,*,#1120,.F.);
#1140=CARTESIAN_POINT('',(75.739901,46.433052,0.));
#1150=DIRECTION('',(-1.,0.,0.));
#1160=DIRECTION('',(0.,1.,0.));
#1170=AXIS2_PLACEMENT_3D('',#1140,#1150,#1160);
#1180=CIRCLE('',#1170,6.);
#1190=CARTESIAN_POINT('',(75.739901,52.433052,0.));
#1200=VERTEX_POINT('',#1190);
#1210=EDGE_CURVE('',#1110,#1200,#1180,.T.);
#1220=ORIENTED_EDGE('',*,*,#1210,.F.);
#1230=CARTESIAN_POINT('',(76.739901,52.433052,0.));
#1240=DIRECTION('',(-1.,0.,0.));
#1250=VECTOR('',#1240,1.);
#1260=LINE('',#1230,#1250);
#1270=EDGE_CURVE('',#910,#1200,#1260,.T.);
#1280=ORIENTED_EDGE('',*,*,#1270,.T.);
#1290=ORIENTED_EDGE('',*,*,#960,.T.);
#1300=EDGE_LOOP('',(#1290,#1280,#1220,#1130));
#1310=FACE_OUTER_BOUND('',#1300,.T.);
#1320=ADVANCED_FACE('',(#1310),#1050,.T.);
#1330=CARTESIAN_POINT('',(75.739901,28.433052,0.));
#1340=DIRECTION('',(-1.,0.,0.));
#1350=DIRECTION('',(0.,1.,0.));
#1360=AXIS2_PLACEMENT_3D('',#1330,#1340,#1350);
#1370=PLANE('',#1360);
#1380=EDGE_CURVE('',#1200,#1110,#1180,.T.);
#1390=ORIENTED_EDGE('',*,*,#1380,.T.);
#1400=ORIENTED_EDGE('',*,*,#1210,.T.);
#1410=EDGE_LOOP('',(#1400,#1390));
#1420=FACE_BOUND('',#1410,.T.);
#1430=CARTESIAN_POINT('',(75.739901,46.433052,0.));
#1440=DIRECTION('',(1.,0.,0.));
#1450=DIRECTION('',(0.,-1.,0.));
#1460=AXIS2_PLACEMENT_3D('',#1430,#1440,#1450);
#1470=CIRCLE('',#1460,24.);
#1480=CARTESIAN_POINT('',(75.739901,22.433052,0.));
#1490=VERTEX_POINT('',#1480);
#1500=CARTESIAN_POINT('',(75.739901,70.433052,-2.93915231795365E-15));
#1510=VERTEX_POINT('',#1500);
#1520=EDGE_CURVE('',#1490,#1510,#1470,.T.);
#1530=ORIENTED_EDGE('',*,*,#1520,.T.);
#1540=EDGE_CURVE('',#1510,#1490,#1470,.T.);
#1550=ORIENTED_EDGE('',*,*,#1540,.T.);
#1560=EDGE_LOOP('',(#1550,#1530));
#1570=FACE_OUTER_BOUND('',#1560,.T.);
#1580=ADVANCED_FACE('',(#1420,#1570),#1370,.F.);
#1590=CARTESIAN_POINT('',(66.739901,46.433052,0.));
#1600=DIRECTION('',(1.,0.,0.));
#1610=DIRECTION('',(0.,-1.,0.));
#1620=AXIS2_PLACEMENT_3D('',#1590,#1600,#1610);
#1630=CYLINDRICAL_SURFACE('',#1620,24.);
#1640=CARTESIAN_POINT('',(66.739901,22.433052,0.));
#1650=DIRECTION('',(1.,0.,0.));
#1660=VECTOR('',#1650,1.);
#1670=LINE('',#1640,#1660);
#1680=EDGE_CURVE('',#650,#1490,#1670,.T.);
#1690=ORIENTED_EDGE('',*,*,#1680,.T.);
#1700=ORIENTED_EDGE('',*,*,#700,.T.);
#1710=CARTESIAN_POINT('',(66.739901,70.433052,-2.93915231795365E-15));
#1720=DIRECTION('',(1.,0.,0.));
#1730=VECTOR('',#1720,1.);
#1740=LINE('',#1710,#1730);
#1750=EDGE_CURVE('',#670,#1510,#1740,.T.);
#1760=ORIENTED_EDGE('',*,*,#1750,.F.);
#1770=ORIENTED_EDGE('',*,*,#1540,.F.);
#1780=EDGE_LOOP('',(#1770,#1760,#1700,#1690));
#1790=FACE_OUTER_BOUND('',#1780,.T.);
#1800=ADVANCED_FACE('',(#1790),#1630,.T.);
#1810=CARTESIAN_POINT('',(66.739901,46.433052,0.));
#1820=DIRECTION('',(1.,0.,0.));
#1830=DIRECTION('',(0.,-1.,0.));
#1840=AXIS2_PLACEMENT_3D('',#1810,#1820,#1830);
#1850=CYLINDRICAL_SURFACE('',#1840,24.);
#1860=ORIENTED_EDGE('',*,*,#1520,.F.);
#1870=ORIENTED_EDGE('',*,*,#1750,.T.);
#1880=ORIENTED_EDGE('',*,*,#680,.T.);
#1890=ORIENTED_EDGE('',*,*,#1680,.F.);
#1900=EDGE_LOOP('',(#1890,#1880,#1870,#1860));
#1910=FACE_OUTER_BOUND('',#1900,.T.);
#1920=ADVANCED_FACE('',(#1910),#1850,.T.);
#1930=CARTESIAN_POINT('',(76.739901,46.433052,0.));
#1940=DIRECTION('',(-1.,0.,0.));
#1950=DIRECTION('',(0.,1.,0.));
#1960=AXIS2_PLACEMENT_3D('',#1930,#1940,#1950);
#1970=CYLINDRICAL_SURFACE('',#1960,6.);
#1980=ORIENTED_EDGE('',*,*,#1380,.F.);
#1990=ORIENTED_EDGE('',*,*,#1120,.T.);
#2000=ORIENTED_EDGE('',*,*,#940,.T.);
#2010=ORIENTED_EDGE('',*,*,#1270,.F.);
#2020=EDGE_LOOP('',(#2010,#2000,#1990,#1980));
#2030=FACE_OUTER_BOUND('',#2020,.T.);
#2040=ADVANCED_FACE('',(#2030),#1970,.T.);
#2050=CARTESIAN_POINT('',(79.239901,46.433052,0.));
#2060=DIRECTION('',(1.,0.,0.));
#2070=DIRECTION('',(0.,1.,0.));
#2080=AXIS2_PLACEMENT_3D('',#2050,#2060,#2070);
#2090=CYLINDRICAL_SURFACE('',#2080,5.);
#2100=ORIENTED_EDGE('',*,*,#150,.F.);
#2110=ORIENTED_EDGE('',*,*,#480,.F.);
#2120=ORIENTED_EDGE('',*,*,#800,.T.);
#2130=ORIENTED_EDGE('',*,*,#330,.T.);
#2140=EDGE_LOOP('',(#2130,#2120,#2110,#2100));
#2150=FACE_OUTER_BOUND('',#2140,.T.);
#2160=ADVANCED_FACE('',(#2150),#2090,.F.);
#2170=CLOSED_SHELL('',(#210,#530,#740,#1000,#1320,#1580,#1800,#1920,
#2040,#2160));
#2180=MANIFOLD_SOLID_BREP('',#2170);
#2190=CARTESIAN_POINT('',(0.,0.,0.));
#2200=DIRECTION('',(0.,0.,1.));
#2210=DIRECTION('',(1.,0.,0.));
#2220=AXIS2_PLACEMENT_3D('',#2190,#2200,#2210);
#2230=APPLICATION_CONTEXT(' ');
#2240=APPLICATION_PROTOCOL_DEFINITION(' ','automotive_design',1998,#2230
);
#2250=PRODUCT_CONTEXT('',#2230,'mechanical');
#2260=PRODUCT_DEFINITION_CONTEXT('part definition',#2230,'design');
#2270=PRODUCT('FG1-10','FG1-10','',(#2250));
#2280=PRODUCT_RELATED_PRODUCT_CATEGORY('part',' ',(#2270));
#2290=PRODUCT_DEFINITION_FORMATION_WITH_SPECIFIED_SOURCE('','',#2270,
.BOUGHT.);
#2300=PRODUCT_DEFINITION('',' ',#2290,#2260);
#2310=PRODUCT_DEFINITION_SHAPE('','',#2300);
#2320=DIMENSIONAL_EXPONENTS(1.,0.,0.,0.,0.,0.,0.);
#2330=DIMENSIONAL_EXPONENTS(0.,0.,0.,0.,0.,0.,0.);
#2340=DIMENSIONAL_EXPONENTS(0.,0.,0.,0.,0.,0.,0.);
#2350=(LENGTH_UNIT() NAMED_UNIT(*) SI_UNIT(.MILLI.,.METRE.));
#2360=(NAMED_UNIT(*) PLANE_ANGLE_UNIT() SI_UNIT($,.RADIAN.));
#2370=(NAMED_UNIT(*) SI_UNIT($,.STERADIAN.) SOLID_ANGLE_UNIT());
#2380=(GEOMETRIC_REPRESENTATION_CONTEXT(3) 
GLOBAL_UNCERTAINTY_ASSIGNED_CONTEXT((#2390)) 
GLOBAL_UNIT_ASSIGNED_CONTEXT((#2350,#2360,#2370)) REPRESENTATION_CONTEXT
('',''));
#2390=UNCERTAINTY_MEASURE_WITH_UNIT(LENGTH_MEASURE(0.0077),#2350,
'distance_accuracy_value','maximum gap value');
#2400=ADVANCED_BREP_SHAPE_REPRESENTATION('',(#2220,#2180),#2380);
#2410=SHAPE_DEFINITION_REPRESENTATION(#2310,#2400);
#2420=COLOUR_RGB('',0.600000023841858,0.600000023841858,
0.600000023841858);
#2430=FILL_AREA_STYLE_COLOUR('',#2420);
#2440=FILL_AREA_STYLE('',(#2430));
#2450=SURFACE_STYLE_FILL_AREA(#2440);
#2460=SURFACE_SIDE_STYLE('',(#2450));
#2470=SURFACE_STYLE_USAGE(.BOTH.,#2460);
#2480=PRESENTATION_STYLE_ASSIGNMENT((#2470));
#2490=STYLED_ITEM('',(#2480),#2180);
#2500=DRAUGHTING_MODEL('',(#2490),#2380);
#2510=CARTESIAN_POINT('',(148.479802,92.866104,0.));
#2520=DIRECTION('',(0.,0.,1.));
#2530=DIRECTION('',(-1.,0.,0.));
#2540=AXIS2_PLACEMENT_3D('',#2510,#2520,#2530);
#2550=ITEM_DEFINED_TRANSFORMATION('FG1-10','',#2220,#2540);
#2560=CARTESIAN_POINT('',(77.739901,44.0093840556837,-3.23285142992637))
;
#2570=DIRECTION('',(1.,0.,0.));
#2580=DIRECTION('',(0.,1.,0.));
#2590=AXIS2_PLACEMENT_3D('',#2560,#2570,#2580);
#2600=PLANE('',#2590);
#2610=CARTESIAN_POINT('',(77.739901,46.433052,0.));
#2620=DIRECTION('',(1.,0.,0.));
#2630=DIRECTION('',(0.,1.,0.));
#2640=AXIS2_PLACEMENT_3D('',#2610,#2620,#2630);
#2650=CIRCLE('',#2640,5.);
#2660=CARTESIAN_POINT('',(77.739901,51.433052,0.));
#2670=VERTEX_POINT('',#2660);
#2680=CARTESIAN_POINT('',(77.739901,41.433052,6.12323399573677E-16));
#2690=VERTEX_POINT('',#2680);
#2700=EDGE_CURVE('',#2670,#2690,#2650,.T.);
#2710=ORIENTED_EDGE('',*,*,#2700,.T.);
#2720=EDGE_CURVE('',#2690,#2670,#2650,.T.);
#2730=ORIENTED_EDGE('',*,*,#2720,.T.);
#2740=EDGE_LOOP('',(#2730,#2710));
#2750=FACE_OUTER_BOUND('',#2740,.T.);
#2760=ADVANCED_FACE('',(#2750),#2600,.T.);
#2770=CARTESIAN_POINT('',(79.239901,46.433052,0.));
#2780=DIRECTION('',(1.,0.,0.));
#2790=DIRECTION('',(0.,1.,0.));
#2800=AXIS2_PLACEMENT_3D('',#2770,#2780,#2790);
#2810=CYLINDRICAL_SURFACE('',#2800,5.);
#2820=CARTESIAN_POINT('',(79.239901,51.433052,0.));
#2830=DIRECTION('',(1.,0.,0.));
#2840=VECTOR('',#2830,1.);
#2850=LINE('',#2820,#2840);
#2860=CARTESIAN_POINT('',(80.739901,51.433052,0.));
#2870=VERTEX_POINT('',#2860);
#2880=EDGE_CURVE('',#2670,#2870,#2850,.T.);
#2890=ORIENTED_EDGE('',*,*,#2880,.F.);
#2900=CARTESIAN_POINT('',(80.739901,46.433052,0.));
#2910=DIRECTION('',(1.,0.,0.));
#2920=DIRECTION('',(0.,1.,0.));
#2930=AXIS2_PLACEMENT_3D('',#2900,#2910,#2920);
#2940=CIRCLE('',#2930,5.);
#2950=CARTESIAN_POINT('',(80.739901,41.433052,6.12323399573677E-16));
#2960=VERTEX_POINT('',#2950);
#2970=EDGE_CURVE('',#2960,#2870,#2940,.T.);
#2980=ORIENTED_EDGE('',*,*,#2970,.T.);
#2990=CARTESIAN_POINT('',(79.239901,41.433052,6.12323399573677E-16));
#3000=DIRECTION('',(1.,0.,0.));
#3010=VECTOR('',#3000,1.);
#3020=LINE('',#2990,#3010);
#3030=EDGE_CURVE('',#2690,#2960,#3020,.T.);
#3040=ORIENTED_EDGE('',*,*,#3030,.T.);
#3050=ORIENTED_EDGE('',*,*,#2720,.F.);
#3060=EDGE_LOOP('',(#3050,#3040,#2980,#2890));
#3070=FACE_OUTER_BOUND('',#3060,.T.);
#3080=ADVANCED_FACE('',(#3070),#2810,.F.);
#3090=CARTESIAN_POINT('',(70.739901,17.1183362076631,-41.8522566640086))
;
#3100=DIRECTION('',(-1.,0.,0.));
#3110=DIRECTION('',(0.,1.,0.));
#3120=AXIS2_PLACEMENT_3D('',#3090,#3100,#3110);
#3130=PLANE('',#3120);
#3140=CARTESIAN_POINT('',(70.739901,46.433052,0.));
#3150=DIRECTION('',(1.,0.,0.));
#3160=DIRECTION('',(0.,-1.,0.));
#3170=AXIS2_PLACEMENT_3D('',#3140,#3150,#3160);
#3180=CIRCLE('',#3170,24.);
#3190=CARTESIAN_POINT('',(70.739901,22.433052,0.));
#3200=VERTEX_POINT('',#3190);
#3210=CARTESIAN_POINT('',(70.739901,70.433052,-2.93915231795365E-15));
#3220=VERTEX_POINT('',#3210);
#3230=EDGE_CURVE('',#3200,#3220,#3180,.T.);
#3240=ORIENTED_EDGE('',*,*,#3230,.F.);
#3250=EDGE_CURVE('',#3220,#3200,#3180,.T.);
#3260=ORIENTED_EDGE('',*,*,#3250,.F.);
#3270=EDGE_LOOP('',(#3260,#3240));
#3280=FACE_OUTER_BOUND('',#3270,.T.);
#3290=ADVANCED_FACE('',(#3280),#3130,.T.);
#3300=CARTESIAN_POINT('',(80.739901,37.933052,0.));
#3310=DIRECTION('',(-1.,0.,0.));
#3320=DIRECTION('',(0.,1.,0.));
#3330=AXIS2_PLACEMENT_3D('',#3300,#3310,#3320);
#3340=PLANE('',#3330);
#3350=EDGE_CURVE('',#2870,#2960,#2940,.T.);
#3360=ORIENTED_EDGE('',*,*,#3350,.F.);
#3370=ORIENTED_EDGE('',*,*,#2970,.F.);
#3380=EDGE_LOOP('',(#3370,#3360));
#3390=FACE_BOUND('',#3380,.T.);
#3400=CARTESIAN_POINT('',(80.739901,46.433052,0.));
#3410=DIRECTION('',(-1.,0.,0.));
#3420=DIRECTION('',(0.,1.,0.));
#3430=AXIS2_PLACEMENT_3D('',#3400,#3410,#3420);
#3440=CIRCLE('',#3430,6.);
#3450=CARTESIAN_POINT('',(80.739901,52.433052,0.));
#3460=VERTEX_POINT('',#3450);
#3470=CARTESIAN_POINT('',(80.739901,40.433052,-7.34788079488412E-16));
#3480=VERTEX_POINT('',#3470);
#3490=EDGE_CURVE('',#3460,#3480,#3440,.T.);
#3500=ORIENTED_EDGE('',*,*,#3490,.F.);
#3510=EDGE_CURVE('',#3480,#3460,#3440,.T.);
#3520=ORIENTED_EDGE('',*,*,#3510,.F.);
#3530=EDGE_LOOP('',(#3520,#3500));
#3540=FACE_OUTER_BOUND('',#3530,.T.);
#3550=ADVANCED_FACE('',(#3390,#3540),#3340,.F.);
#3560=CARTESIAN_POINT('',(76.739901,46.433052,0.));
#3570=DIRECTION('',(-1.,0.,0.));
#3580=DIRECTION('',(0.,1.,0.));
#3590=AXIS2_PLACEMENT_3D('',#3560,#3570,#3580);
#3600=CYLINDRICAL_SURFACE('',#3590,6.);
#3610=CARTESIAN_POINT('',(76.739901,40.433052,-7.34788079488412E-16));
#3620=DIRECTION('',(-1.,0.,0.));
#3630=VECTOR('',#3620,1.);
#3640=LINE('',#3610,#3630);
#3650=CARTESIAN_POINT('',(75.739901,40.433052,-7.34788079488412E-16));
#3660=VERTEX_POINT('',#3650);
#3670=EDGE_CURVE('',#3480,#3660,#3640,.T.);
#3680=ORIENTED_EDGE('',*,*,#3670,.F.);
#3690=CARTESIAN_POINT('',(75.739901,46.433052,0.));
#3700=DIRECTION('',(-1.,0.,0.));
#3710=DIRECTION('',(0.,1.,0.));
#3720=AXIS2_PLACEMENT_3D('',#3690,#3700,#3710);
#3730=CIRCLE('',#3720,6.);
#3740=CARTESIAN_POINT('',(75.739901,52.433052,0.));
#3750=VERTEX_POINT('',#3740);
#3760=EDGE_CURVE('',#3660,#3750,#3730,.T.);
#3770=ORIENTED_EDGE('',*,*,#3760,.F.);
#3780=CARTESIAN_POINT('',(76.739901,52.433052,0.));
#3790=DIRECTION('',(-1.,0.,0.));
#3800=VECTOR('',#3790,1.);
#3810=LINE('',#3780,#3800);
#3820=EDGE_CURVE('',#3460,#3750,#3810,.T.);
#3830=ORIENTED_EDGE('',*,*,#3820,.T.);
#3840=ORIENTED_EDGE('',*,*,#3510,.T.);
#3850=EDGE_LOOP('',(#3840,#3830,#3770,#3680));
#3860=FACE_OUTER_BOUND('',#3850,.T.);
#3870=ADVANCED_FACE('',(#3860),#3600,.T.);
#3880=CARTESIAN_POINT('',(75.739901,28.433052,0.));
#3890=DIRECTION('',(-1.,0.,0.));
#3900=DIRECTION('',(0.,1.,0.));
#3910=AXIS2_PLACEMENT_3D('',#3880,#3890,#3900);
#3920=PLANE('',#3910);
#3930=EDGE_CURVE('',#3750,#3660,#3730,.T.);
#3940=ORIENTED_EDGE('',*,*,#3930,.T.);
#3950=ORIENTED_EDGE('',*,*,#3760,.T.);
#3960=EDGE_LOOP('',(#3950,#3940));
#3970=FACE_BOUND('',#3960,.T.);
#3980=CARTESIAN_POINT('',(75.739901,46.433052,0.));
#3990=DIRECTION('',(1.,0.,0.));
#4000=DIRECTION('',(0.,-1.,0.));
#4010=AXIS2_PLACEMENT_3D('',#3980,#3990,#4000);
#4020=CIRCLE('',#4010,24.);
#4030=CARTESIAN_POINT('',(75.739901,22.433052,0.));
#4040=VERTEX_POINT('',#4030);
#4050=CARTESIAN_POINT('',(75.739901,70.433052,-2.93915231795365E-15));
#4060=VERTEX_POINT('',#4050);
#4070=EDGE_CURVE('',#4040,#4060,#4020,.T.);
#4080=ORIENTED_EDGE('',*,*,#4070,.T.);
#4090=EDGE_CURVE('',#4060,#4040,#4020,.T.);
#4100=ORIENTED_EDGE('',*,*,#4090,.T.);
#4110=EDGE_LOOP('',(#4100,#4080));
#4120=FACE_OUTER_BOUND('',#4110,.T.);
#4130=ADVANCED_FACE('',(#3970,#4120),#3920,.F.);
#4140=CARTESIAN_POINT('',(66.739901,46.433052,0.));
#4150=DIRECTION('',(1.,0.,0.));
#4160=DIRECTION('',(0.,-1.,0.));
#4170=AXIS2_PLACEMENT_3D('',#4140,#4150,#4160);
#4180=CYLINDRICAL_SURFACE('',#4170,24.);
#4190=CARTESIAN_POINT('',(66.739901,22.433052,0.));
#4200=DIRECTION('',(1.,0.,0.));
#4210=VECTOR('',#4200,1.);
#4220=LINE('',#4190,#4210);
#4230=EDGE_CURVE('',#3200,#4040,#4220,.T.);
#4240=ORIENTED_EDGE('',*,*,#4230,.T.);
#4250=ORIENTED_EDGE('',*,*,#3250,.T.);
#4260=CARTESIAN_POINT('',(66.739901,70.433052,-2.93915231795365E-15));
#4270=DIRECTION('',(1.,0.,0.));
#4280=VECTOR('',#4270,1.);
#4290=LINE('',#4260,#4280);
#4300=EDGE_CURVE('',#3220,#4060,#4290,.T.);
#4310=ORIENTED_EDGE('',*,*,#4300,.F.);
#4320=ORIENTED_EDGE('',*,*,#4090,.F.);
#4330=EDGE_LOOP('',(#4320,#4310,#4250,#4240));
#4340=FACE_OUTER_BOUND('',#4330,.T.);
#4350=ADVANCED_FACE('',(#4340),#4180,.T.);
#4360=CARTESIAN_POINT('',(66.739901,46.433052,0.));
#4370=DIRECTION('',(1.,0.,0.));
#4380=DIRECTION('',(0.,-1.,0.));
#4390=AXIS2_PLACEMENT_3D('',#4360,#4370,#4380);
#4400=CYLINDRICAL_SURFACE('',#4390,24.);
#4410=ORIENTED_EDGE('',*,*,#4070,.F.);
#4420=ORIENTED_EDGE('',*,*,#4300,.T.);
#4430=ORIENTED_EDGE('',*,*,#3230,.T.);
#4440=ORIENTED_EDGE('',*,*,#4230,.F.);
#4450=EDGE_LOOP('',(#4440,#4430,#4420,#4410));
#4460=FACE_OUTER_BOUND('',#4450,.T.);
#4470=ADVANCED_FACE('',(#4460),#4400,.T.);
#4480=CARTESIAN_POINT('',(79.239901,46.433052,0.));
#4490=DIRECTION('',(1.,0.,0.));
#4500=DIRECTION('',(0.,1.,0.));
#4510=AXIS2_PLACEMENT_3D('',#4480,#4490,#4500);
#4520=CYLINDRICAL_SURFACE('',#4510,5.);
#4530=ORIENTED_EDGE('',*,*,#2700,.F.);
#4540=ORIENTED_EDGE('',*,*,#3030,.F.);
#4550=ORIENTED_EDGE('',*,*,#3350,.T.);
#4560=ORIENTED_EDGE('',*,*,#2880,.T.);
#4570=EDGE_LOOP('',(#4560,#4550,#4540,#4530));
#4580=FACE_OUTER_BOUND('',#4570,.T.);
#4590=ADVANCED_FACE('',(#4580),#4520,.F.);
#4600=CARTESIAN_POINT('',(76.739901,46.433052,0.));
#4610=DIRECTION('',(-1.,0.,0.));
#4620=DIRECTION('',(0.,1.,0.));
#4630=AXIS2_PLACEMENT_3D('',#4600,#4610,#4620);
#4640=CYLINDRICAL_SURFACE('',#4630,6.);
#4650=ORIENTED_EDGE('',*,*,#3930,.F.);
#4660=ORIENTED_EDGE('',*,*,#3670,.T.);
#4670=ORIENTED_EDGE('',*,*,#3490,.T.);
#4680=ORIENTED_EDGE('',*,*,#3820,.F.);
#4690=EDGE_LOOP('',(#4680,#4670,#4660,#4650));
#4700=FACE_OUTER_BOUND('',#4690,.T.);
#4710=ADVANCED_FACE('',(#4700),#4640,.T.);
#4720=CLOSED_SHELL('',(#2760,#3080,#3290,#3550,#3870,#4130,#4350,#4470,
#4590,#4710));
#4730=MANIFOLD_SOLID_BREP('',#4720);
#4740=APPLICATION_CONTEXT(' ');
#4750=APPLICATION_PROTOCOL_DEFINITION(' ','automotive_design',1998,#4740
);
#4760=PRODUCT_CONTEXT('',#4740,'mechanical');
#4770=PRODUCT_DEFINITION_CONTEXT('part definition',#4740,'design');
#4780=PRODUCT('FN1-10','FN1-10','',(#4760));
#4790=PRODUCT_RELATED_PRODUCT_CATEGORY('part',' ',(#4780));
#4800=PRODUCT_DEFINITION_FORMATION_WITH_SPECIFIED_SOURCE('','',#4780,
.BOUGHT.);
#4810=PRODUCT_DEFINITION('',' ',#4800,#4770);
#4820=PRODUCT_DEFINITION_SHAPE('','',#4810);
#4830=DIMENSIONAL_EXPONENTS(1.,0.,0.,0.,0.,0.,0.);
#4840=DIMENSIONAL_EXPONENTS(0.,0.,0.,0.,0.,0.,0.);
#4850=DIMENSIONAL_EXPONENTS(0.,0.,0.,0.,0.,0.,0.);
#4860=(LENGTH_UNIT() NAMED_UNIT(*) SI_UNIT(.MILLI.,.METRE.));
#4870=(NAMED_UNIT(*) PLANE_ANGLE_UNIT() SI_UNIT($,.RADIAN.));
#4880=(NAMED_UNIT(*) SI_UNIT($,.STERADIAN.) SOLID_ANGLE_UNIT());
#4890=(GEOMETRIC_REPRESENTATION_CONTEXT(3) 
GLOBAL_UNCERTAINTY_ASSIGNED_CONTEXT((#4900)) 
GLOBAL_UNIT_ASSIGNED_CONTEXT((#4860,#4870,#4880)) REPRESENTATION_CONTEXT
('',''));
#4900=UNCERTAINTY_MEASURE_WITH_UNIT(LENGTH_MEASURE(0.0077),#4860,
'distance_accuracy_value','maximum gap value');
#4910=ADVANCED_BREP_SHAPE_REPRESENTATION('',(#2220,#4730),#4890);
#4920=SHAPE_DEFINITION_REPRESENTATION(#4820,#4910);
#4930=COLOUR_RGB('',0.600000023841858,0.600000023841858,
0.600000023841858);
#4940=FILL_AREA_STYLE_COLOUR('',#4930);
#4950=FILL_AREA_STYLE('',(#4940));
#4960=SURFACE_STYLE_FILL_AREA(#4950);
#4970=SURFACE_SIDE_STYLE('',(#4960));
#4980=SURFACE_STYLE_USAGE(.BOTH.,#4970);
#4990=PRESENTATION_STYLE_ASSIGNMENT((#4980));
#5000=STYLED_ITEM('',(#4990),#4730);
#5010=DRAUGHTING_MODEL('',(#5000),#4890);
#5020=CARTESIAN_POINT('',(7.,0.,0.));
#5030=DIRECTION('',(0.,0.,1.));
#5040=DIRECTION('',(1.,0.,0.));
#5050=AXIS2_PLACEMENT_3D('',#5020,#5030,#5040);
#5060=ITEM_DEFINED_TRANSFORMATION('FN1-10','',#2220,#5050);
#5070=APPLICATION_CONTEXT(' ');
#5080=APPLICATION_PROTOCOL_DEFINITION(' ','automotive_design',1998,#5070
);
#5090=PRODUCT_CONTEXT('',#5070,'mechanical');
#5100=PRODUCT_DEFINITION_CONTEXT('part definition',#5070,'design');
#5110=PRODUCT('FGN1-10','FGN1-10','',(#5090));
#5120=PRODUCT_RELATED_PRODUCT_CATEGORY('part',' ',(#5110));
#5130=PRODUCT_DEFINITION_FORMATION_WITH_SPECIFIED_SOURCE('','',#5110,
.BOUGHT.);
#5140=PRODUCT_DEFINITION('',' ',#5130,#5100);
#5150=PRODUCT_DEFINITION_SHAPE('','',#5140);
#5160=DIMENSIONAL_EXPONENTS(1.,0.,0.,0.,0.,0.,0.);
#5170=DIMENSIONAL_EXPONENTS(0.,0.,0.,0.,0.,0.,0.);
#5180=DIMENSIONAL_EXPONENTS(0.,0.,0.,0.,0.,0.,0.);
#5190=(LENGTH_UNIT() NAMED_UNIT(*) SI_UNIT(.MILLI.,.METRE.));
#5200=(NAMED_UNIT(*) PLANE_ANGLE_UNIT() SI_UNIT($,.RADIAN.));
#5210=(NAMED_UNIT(*) SI_UNIT($,.STERADIAN.) SOLID_ANGLE_UNIT());
#5220=(GEOMETRIC_REPRESENTATION_CONTEXT(3) 
GLOBAL_UNCERTAINTY_ASSIGNED_CONTEXT((#5230)) 
GLOBAL_UNIT_ASSIGNED_CONTEXT((#5190,#5200,#5210)) REPRESENTATION_CONTEXT
('',''));
#5230=UNCERTAINTY_MEASURE_WITH_UNIT(LENGTH_MEASURE(0.0077),#5190,
'distance_accuracy_value','maximum gap value');
#5240=SHAPE_REPRESENTATION('',(#2220,#5050,#2540),#5220);
#5250=SHAPE_DEFINITION_REPRESENTATION(#5150,#5240);
#5260=(REPRESENTATION_RELATIONSHIP('','',#4910,#5240) 
REPRESENTATION_RELATIONSHIP_WITH_TRANSFORMATION(#5060) 
SHAPE_REPRESENTATION_RELATIONSHIP());
#5270=NEXT_ASSEMBLY_USAGE_OCCURRENCE('1','','FN1-10',#5140,#4810,'');
#5280=PRODUCT_DEFINITION_SHAPE('','',#5270);
#5290=CONTEXT_DEPENDENT_SHAPE_REPRESENTATION(#5260,#5280);
#5300=(REPRESENTATION_RELATIONSHIP('','',#2400,#5240) 
REPRESENTATION_RELATIONSHIP_WITH_TRANSFORMATION(#2550) 
SHAPE_REPRESENTATION_RELATIONSHIP());
#5310=NEXT_ASSEMBLY_USAGE_OCCURRENCE('2','','FG1-10',#5140,#2300,'');
#5320=PRODUCT_DEFINITION_SHAPE('','',#5310);
#5330=CONTEXT_DEPENDENT_SHAPE_REPRESENTATION(#5300,#5320);
ENDSEC;
END-ISO-10303-21;
