ISO-10303-21;
HEADER;
/* Generated by software containing ST-Developer
 * from STEP Tools, Inc. (www.steptools.com) 
 */

FILE_DESCRIPTION(
/* description */ (''),
/* implementation_level */ '2;1');

FILE_NAME(
/* name */ 
'H:\\UHP\\!!! \X2\C11CBC84\X0\ \X2\D3F4B354\X0\ \X2\C815B9AC\X0\ \X2\C9C4D589\X0\ 
\X2\C911\X0\ !!!\\TEST\\8. \X2\AC1CC778BCC4\X0\ \X2\D3F4B354\X0\\\8. \X2\CD5CBCD1C8FC\X0\ 
\X2\C0ACC6D0\X0\\\\X2\C5C5BB34D611C870C804\X0\ 3D\\STEP\\SM4BGT-0.stp',

/* time_stamp */ '2025-03-10T14:11:18+09:00',
/* author */ ('user'),
/* organization */ (''),
/* preprocessor_version */ 'ST-DEVELOPER v20',
/* originating_system */ 'Autodesk Inventor 2022',
/* authorisation */ '');

FILE_SCHEMA (('AUTOMOTIVE_DESIGN { 1 0 10303 214 3 1 1 }'));
ENDSEC;

DATA;
#10=MECHANICAL_DESIGN_GEOMETRIC_PRESENTATION_REPRESENTATION('',(#13),#95);
#11=SHAPE_REPRESENTATION_RELATIONSHIP('SRR','None',#102,#12);
#12=ADVANCED_BREP_SHAPE_REPRESENTATION('',(#14),#94);
#13=STYLED_ITEM('',(#111),#14);
#14=MANIFOLD_SOLID_BREP('\X2\C194B9ACB4DC\X0\1',#42);
#15=LINE('',#90,#16);
#16=VECTOR('',#80,5.95);
#17=CYLINDRICAL_SURFACE('',#67,5.95);
#18=FACE_OUTER_BOUND('',#21,.T.);
#19=FACE_OUTER_BOUND('',#22,.T.);
#20=FACE_OUTER_BOUND('',#23,.T.);
#21=EDGE_LOOP('',(#31));
#22=EDGE_LOOP('',(#32,#33,#34,#35));
#23=EDGE_LOOP('',(#36));
#24=CIRCLE('',#66,5.95);
#25=CIRCLE('',#68,5.95);
#26=VERTEX_POINT('',#85);
#27=VERTEX_POINT('',#88);
#28=EDGE_CURVE('',#26,#26,#24,.T.);
#29=EDGE_CURVE('',#27,#27,#25,.T.);
#30=EDGE_CURVE('',#27,#26,#15,.T.);
#31=ORIENTED_EDGE('',*,*,#28,.T.);
#32=ORIENTED_EDGE('',*,*,#29,.F.);
#33=ORIENTED_EDGE('',*,*,#30,.T.);
#34=ORIENTED_EDGE('',*,*,#28,.F.);
#35=ORIENTED_EDGE('',*,*,#30,.F.);
#36=ORIENTED_EDGE('',*,*,#29,.T.);
#37=PLANE('',#65);
#38=PLANE('',#69);
#39=ADVANCED_FACE('',(#18),#37,.F.);
#40=ADVANCED_FACE('',(#19),#17,.T.);
#41=ADVANCED_FACE('',(#20),#38,.T.);
#42=CLOSED_SHELL('',(#39,#40,#41));
#43=DERIVED_UNIT_ELEMENT(#46,1.);
#44=DERIVED_UNIT_ELEMENT(#97,-3.);
#45=DIMENSIONAL_EXPONENTS(1.,0.,0.,0.,0.,0.,0.);
#46=(
CONVERSION_BASED_UNIT('gram',#48)
MASS_UNIT()
NAMED_UNIT(#45)
);
#47=(
MASS_UNIT()
NAMED_UNIT(*)
SI_UNIT(.KILO.,.GRAM.)
);
#48=MASS_MEASURE_WITH_UNIT(MASS_MEASURE(0.001),#47);
#49=DERIVED_UNIT((#43,#44));
#50=MEASURE_REPRESENTATION_ITEM('density measure',
POSITIVE_RATIO_MEASURE(1.),#49);
#51=PROPERTY_DEFINITION_REPRESENTATION(#56,#53);
#52=PROPERTY_DEFINITION_REPRESENTATION(#57,#54);
#53=REPRESENTATION('material name',(#55),#94);
#54=REPRESENTATION('density',(#50),#94);
#55=DESCRIPTIVE_REPRESENTATION_ITEM('\X2\C77CBC18\X0\','\X2\C77CBC18\X0\');
#56=PROPERTY_DEFINITION('material property','material name',#104);
#57=PROPERTY_DEFINITION('material property','density of part',#104);
#58=DATE_TIME_ROLE('creation_date');
#59=APPLIED_DATE_AND_TIME_ASSIGNMENT(#60,#58,(#104));
#60=DATE_AND_TIME(#61,#62);
#61=CALENDAR_DATE(2024,29,4);
#62=LOCAL_TIME(0,0,0.,#63);
#63=COORDINATED_UNIVERSAL_TIME_OFFSET(0,0,.BEHIND.);
#64=AXIS2_PLACEMENT_3D('placement',#83,#70,#71);
#65=AXIS2_PLACEMENT_3D('',#84,#72,#73);
#66=AXIS2_PLACEMENT_3D('',#86,#74,#75);
#67=AXIS2_PLACEMENT_3D('',#87,#76,#77);
#68=AXIS2_PLACEMENT_3D('',#89,#78,#79);
#69=AXIS2_PLACEMENT_3D('',#91,#81,#82);
#70=DIRECTION('axis',(0.,0.,1.));
#71=DIRECTION('refdir',(1.,0.,0.));
#72=DIRECTION('center_axis',(0.,0.,1.));
#73=DIRECTION('ref_axis',(1.,0.,0.));
#74=DIRECTION('center_axis',(0.,0.,-1.));
#75=DIRECTION('ref_axis',(1.,0.,0.));
#76=DIRECTION('center_axis',(0.,0.,1.));
#77=DIRECTION('ref_axis',(1.,0.,0.));
#78=DIRECTION('center_axis',(0.,0.,1.));
#79=DIRECTION('ref_axis',(1.,0.,0.));
#80=DIRECTION('',(0.,0.,-1.));
#81=DIRECTION('center_axis',(0.,0.,1.));
#82=DIRECTION('ref_axis',(1.,0.,0.));
#83=CARTESIAN_POINT('',(0.,0.,0.));
#84=CARTESIAN_POINT('Origin',(0.,0.,-0.4));
#85=CARTESIAN_POINT('',(-5.95,-7.28664845492675E-16,-0.4));
#86=CARTESIAN_POINT('Origin',(0.,0.,-0.4));
#87=CARTESIAN_POINT('Origin',(0.,0.,0.));
#88=CARTESIAN_POINT('',(-5.95,-7.28664845492675E-16,0.4));
#89=CARTESIAN_POINT('Origin',(0.,0.,0.4));
#90=CARTESIAN_POINT('',(-5.95,-7.28664845492675E-16,0.));
#91=CARTESIAN_POINT('Origin',(0.,0.,0.4));
#92=UNCERTAINTY_MEASURE_WITH_UNIT(LENGTH_MEASURE(0.01),#96,
'DISTANCE_ACCURACY_VALUE',
'Maximum model space distance between geometric entities at asserted c
onnectivities');
#93=UNCERTAINTY_MEASURE_WITH_UNIT(LENGTH_MEASURE(0.01),#96,
'DISTANCE_ACCURACY_VALUE',
'Maximum model space distance between geometric entities at asserted c
onnectivities');
#94=(
GEOMETRIC_REPRESENTATION_CONTEXT(3)
GLOBAL_UNCERTAINTY_ASSIGNED_CONTEXT((#92))
GLOBAL_UNIT_ASSIGNED_CONTEXT((#96,#98,#99))
REPRESENTATION_CONTEXT('','3D')
);
#95=(
GEOMETRIC_REPRESENTATION_CONTEXT(3)
GLOBAL_UNCERTAINTY_ASSIGNED_CONTEXT((#93))
GLOBAL_UNIT_ASSIGNED_CONTEXT((#96,#98,#99))
REPRESENTATION_CONTEXT('','3D')
);
#96=(
LENGTH_UNIT()
NAMED_UNIT(*)
SI_UNIT(.MILLI.,.METRE.)
);
#97=(
LENGTH_UNIT()
NAMED_UNIT(*)
SI_UNIT(.CENTI.,.METRE.)
);
#98=(
NAMED_UNIT(*)
PLANE_ANGLE_UNIT()
SI_UNIT($,.RADIAN.)
);
#99=(
NAMED_UNIT(*)
SI_UNIT($,.STERADIAN.)
SOLID_ANGLE_UNIT()
);
#100=SHAPE_DEFINITION_REPRESENTATION(#101,#102);
#101=PRODUCT_DEFINITION_SHAPE('',$,#104);
#102=SHAPE_REPRESENTATION('',(#64),#94);
#103=PRODUCT_DEFINITION_CONTEXT('part definition',#108,'design');
#104=PRODUCT_DEFINITION('SM4BGT-0','SM4BGT-0',#105,#103);
#105=PRODUCT_DEFINITION_FORMATION('',$,#110);
#106=PRODUCT_RELATED_PRODUCT_CATEGORY('SM4BGT-0','SM4BGT-0',(#110));
#107=APPLICATION_PROTOCOL_DEFINITION('international standard',
'automotive_design',2009,#108);
#108=APPLICATION_CONTEXT(
'Core Data for Automotive Mechanical Design Process');
#109=PRODUCT_CONTEXT('part definition',#108,'mechanical');
#110=PRODUCT('SM4BGT-0','SM4BGT-0',$,(#109));
#111=PRESENTATION_STYLE_ASSIGNMENT((#112));
#112=SURFACE_STYLE_USAGE(.BOTH.,#115);
#113=SURFACE_STYLE_RENDERING_WITH_PROPERTIES($,#119,(#114));
#114=SURFACE_STYLE_TRANSPARENT(0.);
#115=SURFACE_SIDE_STYLE('',(#116,#113));
#116=SURFACE_STYLE_FILL_AREA(#117);
#117=FILL_AREA_STYLE('',(#118));
#118=FILL_AREA_STYLE_COLOUR('',#119);
#119=COLOUR_RGB('',0.745098039215686,0.737254901960784,0.729411764705882);
ENDSEC;
END-ISO-10303-21;
