ISO-10303-21;
HEADER;
/* Generated by software containing ST-Developer
 * from STEP Tools, Inc. (www.steptools.com) 
 */

FILE_DESCRIPTION(
/* description */ (''),
/* implementation_level */ '2;1');

FILE_NAME(
/* name */ 
'H:\\UHP\\!!! \X2\C11CBC84\X0\ \X2\D3F4B354\X0\ \X2\C815B9AC\X0\ \X2\C9C4D589\X0\ 
\X2\C911\X0\ !!!\\TEST\\8. \X2\AC1CC778BCC4\X0\ \X2\D3F4B354\X0\\\8. \X2\CD5CBCD1C8FC\X0\ 
\X2\C0ACC6D0\X0\\\\X2\C5C5BB34D611C870C804\X0\ 3D\\STEP\\SM8E6.stp',
/* time_stamp */ '2025-03-10T14:02:43+09:00',
/* author */ ('user'),
/* organization */ (''),
/* preprocessor_version */ 'ST-DEVELOPER v20',
/* originating_system */ 'Autodesk Inventor 2022',
/* authorisation */ '');

FILE_SCHEMA (('AUTOMOTIVE_DESIGN { 1 0 10303 214 3 1 1 }'));
ENDSEC;

DATA;
#10=MECHANICAL_DESIGN_GEOMETRIC_PRESENTATION_REPRESENTATION('',(#13),#382);
#11=SHAPE_REPRESENTATION_RELATIONSHIP('SRR','None',#389,#12);
#12=ADVANCED_BREP_SHAPE_REPRESENTATION('',(#14),#381);
#13=STYLED_ITEM('',(#398),#14);
#14=MANIFOLD_SOLID_BREP('\X2\C194B9ACB4DC\X0\1',#212);
#15=FACE_BOUND('',#46,.T.);
#16=FACE_BOUND('',#49,.T.);
#17=FACE_BOUND('',#55,.T.);
#18=FACE_BOUND('',#57,.T.);
#19=PLANE('',#247);
#20=PLANE('',#251);
#21=PLANE('',#252);
#22=PLANE('',#253);
#23=PLANE('',#254);
#24=PLANE('',#255);
#25=PLANE('',#256);
#26=PLANE('',#257);
#27=SPHERICAL_SURFACE('',#240,5.1);
#28=FACE_OUTER_BOUND('',#41,.T.);
#29=FACE_OUTER_BOUND('',#42,.T.);
#30=FACE_OUTER_BOUND('',#43,.T.);
#31=FACE_OUTER_BOUND('',#44,.T.);
#32=FACE_OUTER_BOUND('',#45,.T.);
#33=FACE_OUTER_BOUND('',#47,.T.);
#34=FACE_OUTER_BOUND('',#48,.T.);
#35=FACE_OUTER_BOUND('',#50,.T.);
#36=FACE_OUTER_BOUND('',#51,.T.);
#37=FACE_OUTER_BOUND('',#52,.T.);
#38=FACE_OUTER_BOUND('',#53,.T.);
#39=FACE_OUTER_BOUND('',#54,.T.);
#40=FACE_OUTER_BOUND('',#56,.T.);
#41=EDGE_LOOP('',(#143,#144,#145,#146,#147,#148));
#42=EDGE_LOOP('',(#149,#150));
#43=EDGE_LOOP('',(#151,#152,#153,#154,#155,#156));
#44=EDGE_LOOP('',(#157,#158,#159,#160));
#45=EDGE_LOOP('',(#161));
#46=EDGE_LOOP('',(#162));
#47=EDGE_LOOP('',(#163,#164,#165,#166));
#48=EDGE_LOOP('',(#167));
#49=EDGE_LOOP('',(#168));
#50=EDGE_LOOP('',(#169,#170,#171,#172));
#51=EDGE_LOOP('',(#173,#174,#175,#176));
#52=EDGE_LOOP('',(#177,#178,#179,#180));
#53=EDGE_LOOP('',(#181,#182,#183,#184));
#54=EDGE_LOOP('',(#185,#186,#187,#188));
#55=EDGE_LOOP('',(#189));
#56=EDGE_LOOP('',(#190,#191,#192,#193));
#57=EDGE_LOOP('',(#194));
#58=ELLIPSE('',#237,7.21248916810278,5.1);
#59=ELLIPSE('',#239,7.21248916810278,5.1);
#60=LINE('',#327,#76);
#61=LINE('',#338,#77);
#62=LINE('',#343,#78);
#63=LINE('',#350,#79);
#64=LINE('',#356,#80);
#65=LINE('',#358,#81);
#66=LINE('',#360,#82);
#67=LINE('',#361,#83);
#68=LINE('',#364,#84);
#69=LINE('',#366,#85);
#70=LINE('',#367,#86);
#71=LINE('',#370,#87);
#72=LINE('',#371,#88);
#73=LINE('',#374,#89);
#74=LINE('',#375,#90);
#75=LINE('',#377,#91);
#76=VECTOR('',#264,5.1);
#77=VECTOR('',#279,5.1);
#78=VECTOR('',#284,6.35);
#79=VECTOR('',#293,6.35);
#80=VECTOR('',#300,10.);
#81=VECTOR('',#301,10.);
#82=VECTOR('',#302,10.);
#83=VECTOR('',#303,10.);
#84=VECTOR('',#306,10.);
#85=VECTOR('',#307,10.);
#86=VECTOR('',#308,10.);
#87=VECTOR('',#311,10.);
#88=VECTOR('',#312,10.);
#89=VECTOR('',#315,10.);
#90=VECTOR('',#316,10.);
#91=VECTOR('',#319,10.);
#92=CIRCLE('',#236,5.1);
#93=CIRCLE('',#238,5.1);
#94=CIRCLE('',#241,5.1);
#95=CIRCLE('',#243,5.1);
#96=CIRCLE('',#245,6.35);
#97=CIRCLE('',#246,6.35);
#98=CIRCLE('',#249,6.35);
#99=CIRCLE('',#250,6.35);
#100=VERTEX_POINT('',#324);
#101=VERTEX_POINT('',#326);
#102=VERTEX_POINT('',#328);
#103=VERTEX_POINT('',#330);
#104=VERTEX_POINT('',#336);
#105=VERTEX_POINT('',#340);
#106=VERTEX_POINT('',#342);
#107=VERTEX_POINT('',#347);
#108=VERTEX_POINT('',#349);
#109=VERTEX_POINT('',#354);
#110=VERTEX_POINT('',#355);
#111=VERTEX_POINT('',#357);
#112=VERTEX_POINT('',#359);
#113=VERTEX_POINT('',#363);
#114=VERTEX_POINT('',#365);
#115=VERTEX_POINT('',#369);
#116=VERTEX_POINT('',#373);
#117=EDGE_CURVE('',#100,#100,#92,.T.);
#118=EDGE_CURVE('',#100,#101,#60,.T.);
#119=EDGE_CURVE('',#102,#101,#58,.T.);
#120=EDGE_CURVE('',#102,#103,#93,.T.);
#121=EDGE_CURVE('',#101,#103,#59,.T.);
#122=EDGE_CURVE('',#103,#102,#94,.T.);
#123=EDGE_CURVE('',#104,#104,#95,.T.);
#124=EDGE_CURVE('',#104,#101,#61,.T.);
#125=EDGE_CURVE('',#105,#105,#96,.T.);
#126=EDGE_CURVE('',#105,#106,#62,.T.);
#127=EDGE_CURVE('',#106,#106,#97,.T.);
#128=EDGE_CURVE('',#107,#107,#98,.T.);
#129=EDGE_CURVE('',#107,#108,#63,.T.);
#130=EDGE_CURVE('',#108,#108,#99,.T.);
#131=EDGE_CURVE('',#109,#110,#64,.T.);
#132=EDGE_CURVE('',#110,#111,#65,.T.);
#133=EDGE_CURVE('',#111,#112,#66,.T.);
#134=EDGE_CURVE('',#112,#109,#67,.T.);
#135=EDGE_CURVE('',#113,#110,#68,.T.);
#136=EDGE_CURVE('',#114,#113,#69,.T.);
#137=EDGE_CURVE('',#111,#114,#70,.T.);
#138=EDGE_CURVE('',#115,#114,#71,.T.);
#139=EDGE_CURVE('',#112,#115,#72,.T.);
#140=EDGE_CURVE('',#116,#115,#73,.T.);
#141=EDGE_CURVE('',#109,#116,#74,.T.);
#142=EDGE_CURVE('',#113,#116,#75,.T.);
#143=ORIENTED_EDGE('',*,*,#117,.F.);
#144=ORIENTED_EDGE('',*,*,#118,.T.);
#145=ORIENTED_EDGE('',*,*,#119,.F.);
#146=ORIENTED_EDGE('',*,*,#120,.T.);
#147=ORIENTED_EDGE('',*,*,#121,.F.);
#148=ORIENTED_EDGE('',*,*,#118,.F.);
#149=ORIENTED_EDGE('',*,*,#120,.F.);
#150=ORIENTED_EDGE('',*,*,#122,.F.);
#151=ORIENTED_EDGE('',*,*,#123,.F.);
#152=ORIENTED_EDGE('',*,*,#124,.T.);
#153=ORIENTED_EDGE('',*,*,#121,.T.);
#154=ORIENTED_EDGE('',*,*,#122,.T.);
#155=ORIENTED_EDGE('',*,*,#119,.T.);
#156=ORIENTED_EDGE('',*,*,#124,.F.);
#157=ORIENTED_EDGE('',*,*,#125,.F.);
#158=ORIENTED_EDGE('',*,*,#126,.T.);
#159=ORIENTED_EDGE('',*,*,#127,.F.);
#160=ORIENTED_EDGE('',*,*,#126,.F.);
#161=ORIENTED_EDGE('',*,*,#125,.T.);
#162=ORIENTED_EDGE('',*,*,#123,.T.);
#163=ORIENTED_EDGE('',*,*,#128,.F.);
#164=ORIENTED_EDGE('',*,*,#129,.T.);
#165=ORIENTED_EDGE('',*,*,#130,.F.);
#166=ORIENTED_EDGE('',*,*,#129,.F.);
#167=ORIENTED_EDGE('',*,*,#128,.T.);
#168=ORIENTED_EDGE('',*,*,#117,.T.);
#169=ORIENTED_EDGE('',*,*,#131,.T.);
#170=ORIENTED_EDGE('',*,*,#132,.T.);
#171=ORIENTED_EDGE('',*,*,#133,.T.);
#172=ORIENTED_EDGE('',*,*,#134,.T.);
#173=ORIENTED_EDGE('',*,*,#135,.F.);
#174=ORIENTED_EDGE('',*,*,#136,.F.);
#175=ORIENTED_EDGE('',*,*,#137,.F.);
#176=ORIENTED_EDGE('',*,*,#132,.F.);
#177=ORIENTED_EDGE('',*,*,#137,.T.);
#178=ORIENTED_EDGE('',*,*,#138,.F.);
#179=ORIENTED_EDGE('',*,*,#139,.F.);
#180=ORIENTED_EDGE('',*,*,#133,.F.);
#181=ORIENTED_EDGE('',*,*,#139,.T.);
#182=ORIENTED_EDGE('',*,*,#140,.F.);
#183=ORIENTED_EDGE('',*,*,#141,.F.);
#184=ORIENTED_EDGE('',*,*,#134,.F.);
#185=ORIENTED_EDGE('',*,*,#141,.T.);
#186=ORIENTED_EDGE('',*,*,#142,.F.);
#187=ORIENTED_EDGE('',*,*,#135,.T.);
#188=ORIENTED_EDGE('',*,*,#131,.F.);
#189=ORIENTED_EDGE('',*,*,#130,.T.);
#190=ORIENTED_EDGE('',*,*,#142,.T.);
#191=ORIENTED_EDGE('',*,*,#140,.T.);
#192=ORIENTED_EDGE('',*,*,#138,.T.);
#193=ORIENTED_EDGE('',*,*,#136,.T.);
#194=ORIENTED_EDGE('',*,*,#127,.T.);
#195=CYLINDRICAL_SURFACE('',#235,5.1);
#196=CYLINDRICAL_SURFACE('',#242,5.1);
#197=CYLINDRICAL_SURFACE('',#244,6.35);
#198=CYLINDRICAL_SURFACE('',#248,6.35);
#199=ADVANCED_FACE('',(#28),#195,.F.);
#200=ADVANCED_FACE('',(#29),#27,.F.);
#201=ADVANCED_FACE('',(#30),#196,.F.);
#202=ADVANCED_FACE('',(#31),#197,.T.);
#203=ADVANCED_FACE('',(#32,#15),#19,.T.);
#204=ADVANCED_FACE('',(#33),#198,.T.);
#205=ADVANCED_FACE('',(#34,#16),#20,.F.);
#206=ADVANCED_FACE('',(#35),#21,.T.);
#207=ADVANCED_FACE('',(#36),#22,.T.);
#208=ADVANCED_FACE('',(#37),#23,.T.);
#209=ADVANCED_FACE('',(#38),#24,.T.);
#210=ADVANCED_FACE('',(#39,#17),#25,.T.);
#211=ADVANCED_FACE('',(#40,#18),#26,.T.);
#212=CLOSED_SHELL('',(#199,#200,#201,#202,#203,#204,#205,#206,#207,#208,
#209,#210,#211));
#213=DERIVED_UNIT_ELEMENT(#216,1.);
#214=DERIVED_UNIT_ELEMENT(#384,-3.);
#215=DIMENSIONAL_EXPONENTS(1.,0.,0.,0.,0.,0.,0.);
#216=(
CONVERSION_BASED_UNIT('gram',#218)
MASS_UNIT()
NAMED_UNIT(#215)
);
#217=(
MASS_UNIT()
NAMED_UNIT(*)
SI_UNIT(.KILO.,.GRAM.)
);
#218=MASS_MEASURE_WITH_UNIT(MASS_MEASURE(0.001),#217);
#219=DERIVED_UNIT((#213,#214));
#220=MEASURE_REPRESENTATION_ITEM('density measure',
POSITIVE_RATIO_MEASURE(1.),#219);
#221=PROPERTY_DEFINITION_REPRESENTATION(#226,#223);
#222=PROPERTY_DEFINITION_REPRESENTATION(#227,#224);
#223=REPRESENTATION('material name',(#225),#381);
#224=REPRESENTATION('density',(#220),#381);
#225=DESCRIPTIVE_REPRESENTATION_ITEM('\X2\C77CBC18\X0\','\X2\C77CBC18\X0\');
#226=PROPERTY_DEFINITION('material property','material name',#391);
#227=PROPERTY_DEFINITION('material property','density of part',#391);
#228=DATE_TIME_ROLE('creation_date');
#229=APPLIED_DATE_AND_TIME_ASSIGNMENT(#230,#228,(#391));
#230=DATE_AND_TIME(#231,#232);
#231=CALENDAR_DATE(2024,8,4);
#232=LOCAL_TIME(0,0,0.,#233);
#233=COORDINATED_UNIVERSAL_TIME_OFFSET(0,0,.BEHIND.);
#234=AXIS2_PLACEMENT_3D('placement',#322,#258,#259);
#235=AXIS2_PLACEMENT_3D('',#323,#260,#261);
#236=AXIS2_PLACEMENT_3D('',#325,#262,#263);
#237=AXIS2_PLACEMENT_3D('',#329,#265,#266);
#238=AXIS2_PLACEMENT_3D('',#331,#267,#268);
#239=AXIS2_PLACEMENT_3D('',#332,#269,#270);
#240=AXIS2_PLACEMENT_3D('',#333,#271,#272);
#241=AXIS2_PLACEMENT_3D('',#334,#273,#274);
#242=AXIS2_PLACEMENT_3D('',#335,#275,#276);
#243=AXIS2_PLACEMENT_3D('',#337,#277,#278);
#244=AXIS2_PLACEMENT_3D('',#339,#280,#281);
#245=AXIS2_PLACEMENT_3D('',#341,#282,#283);
#246=AXIS2_PLACEMENT_3D('',#344,#285,#286);
#247=AXIS2_PLACEMENT_3D('',#345,#287,#288);
#248=AXIS2_PLACEMENT_3D('',#346,#289,#290);
#249=AXIS2_PLACEMENT_3D('',#348,#291,#292);
#250=AXIS2_PLACEMENT_3D('',#351,#294,#295);
#251=AXIS2_PLACEMENT_3D('',#352,#296,#297);
#252=AXIS2_PLACEMENT_3D('',#353,#298,#299);
#253=AXIS2_PLACEMENT_3D('',#362,#304,#305);
#254=AXIS2_PLACEMENT_3D('',#368,#309,#310);
#255=AXIS2_PLACEMENT_3D('',#372,#313,#314);
#256=AXIS2_PLACEMENT_3D('',#376,#317,#318);
#257=AXIS2_PLACEMENT_3D('',#378,#320,#321);
#258=DIRECTION('axis',(0.,0.,1.));
#259=DIRECTION('refdir',(1.,0.,0.));
#260=DIRECTION('center_axis',(0.,1.,0.));
#261=DIRECTION('ref_axis',(0.,0.,-1.));
#262=DIRECTION('center_axis',(0.,1.,0.));
#263=DIRECTION('ref_axis',(0.,0.,-1.));
#264=DIRECTION('',(0.,1.,0.));
#265=DIRECTION('center_axis',(0.,-0.707106781186548,-0.707106781186548));
#266=DIRECTION('ref_axis',(0.,0.707106781186547,-0.707106781186547));
#267=DIRECTION('center_axis',(0.,1.,0.));
#268=DIRECTION('ref_axis',(0.,0.,-1.));
#269=DIRECTION('center_axis',(0.,-0.707106781186548,-0.707106781186548));
#270=DIRECTION('ref_axis',(0.,0.707106781186547,-0.707106781186547));
#271=DIRECTION('center_axis',(0.577350269189626,0.577350269189626,0.577350269189626));
#272=DIRECTION('ref_axis',(-6.67289294940604E-16,0.707106781186548,-0.707106781186547));
#273=DIRECTION('center_axis',(0.,0.,-1.));
#274=DIRECTION('ref_axis',(1.,0.,0.));
#275=DIRECTION('center_axis',(0.,0.,-1.));
#276=DIRECTION('ref_axis',(0.,1.,0.));
#277=DIRECTION('center_axis',(0.,0.,-1.));
#278=DIRECTION('ref_axis',(0.,1.,0.));
#279=DIRECTION('',(0.,0.,-1.));
#280=DIRECTION('center_axis',(0.,0.,1.));
#281=DIRECTION('ref_axis',(1.,0.,0.));
#282=DIRECTION('center_axis',(0.,0.,1.));
#283=DIRECTION('ref_axis',(1.,0.,0.));
#284=DIRECTION('',(0.,0.,-1.));
#285=DIRECTION('center_axis',(0.,0.,-1.));
#286=DIRECTION('ref_axis',(1.,0.,0.));
#287=DIRECTION('center_axis',(0.,0.,1.));
#288=DIRECTION('ref_axis',(1.,0.,0.));
#289=DIRECTION('center_axis',(0.,-1.,0.));
#290=DIRECTION('ref_axis',(-1.,0.,0.));
#291=DIRECTION('center_axis',(0.,-1.,0.));
#292=DIRECTION('ref_axis',(-1.,0.,0.));
#293=DIRECTION('',(0.,1.,0.));
#294=DIRECTION('center_axis',(1.55275947500022E-16,1.,0.));
#295=DIRECTION('ref_axis',(-1.,0.,0.));
#296=DIRECTION('center_axis',(0.,1.,0.));
#297=DIRECTION('ref_axis',(0.,0.,1.));
#298=DIRECTION('center_axis',(0.,0.,-1.));
#299=DIRECTION('ref_axis',(-1.,0.,0.));
#300=DIRECTION('',(-1.,1.55275947500022E-16,0.));
#301=DIRECTION('',(-1.55275947500022E-16,1.,0.));
#302=DIRECTION('',(1.,7.76379737500109E-17,0.));
#303=DIRECTION('',(0.,-1.,0.));
#304=DIRECTION('center_axis',(-1.,-1.55275947500022E-16,0.));
#305=DIRECTION('ref_axis',(1.55275947500022E-16,-1.,0.));
#306=DIRECTION('',(0.,0.,-1.));
#307=DIRECTION('',(1.55275947500022E-16,-1.,0.));
#308=DIRECTION('',(0.,0.,1.));
#309=DIRECTION('center_axis',(-7.76379737500109E-17,1.,0.));
#310=DIRECTION('ref_axis',(-1.,-7.76379737500109E-17,0.));
#311=DIRECTION('',(-1.,-7.76379737500109E-17,0.));
#312=DIRECTION('',(0.,0.,1.));
#313=DIRECTION('center_axis',(1.,0.,0.));
#314=DIRECTION('ref_axis',(0.,1.,0.));
#315=DIRECTION('',(0.,1.,0.));
#316=DIRECTION('',(0.,0.,1.));
#317=DIRECTION('center_axis',(-1.55275947500022E-16,-1.,0.));
#318=DIRECTION('ref_axis',(1.,-1.55275947500022E-16,0.));
#319=DIRECTION('',(1.,-1.55275947500022E-16,0.));
#320=DIRECTION('center_axis',(0.,0.,1.));
#321=DIRECTION('ref_axis',(1.,0.,0.));
#322=CARTESIAN_POINT('',(0.,0.,0.));
#323=CARTESIAN_POINT('Origin',(0.,-6.75,0.));
#324=CARTESIAN_POINT('',(6.2456986756515E-16,-13.5,5.1));
#325=CARTESIAN_POINT('Origin',(0.,-13.5,0.));
#326=CARTESIAN_POINT('',(6.24569867565151E-16,-5.1,5.1));
#327=CARTESIAN_POINT('',(6.2456986756515E-16,-6.75,5.1));
#328=CARTESIAN_POINT('',(5.1,0.,0.));
#329=CARTESIAN_POINT('Origin',(0.,0.,0.));
#330=CARTESIAN_POINT('',(-5.1,0.,0.));
#331=CARTESIAN_POINT('Origin',(0.,0.,0.));
#332=CARTESIAN_POINT('Origin',(0.,0.,0.));
#333=CARTESIAN_POINT('Origin',(0.,0.,0.));
#334=CARTESIAN_POINT('Origin',(0.,0.,0.));
#335=CARTESIAN_POINT('Origin',(0.,0.,6.75));
#336=CARTESIAN_POINT('',(-6.2456986756515E-16,-5.1,13.5));
#337=CARTESIAN_POINT('Origin',(0.,0.,13.5));
#338=CARTESIAN_POINT('',(-6.2456986756515E-16,-5.1,6.75));
#339=CARTESIAN_POINT('Origin',(0.,0.,0.));
#340=CARTESIAN_POINT('',(-6.35,-7.77650717458569E-16,13.5));
#341=CARTESIAN_POINT('Origin',(0.,0.,13.5));
#342=CARTESIAN_POINT('',(-6.35,7.77650717458569E-16,7.15));
#343=CARTESIAN_POINT('',(-6.35,-7.77650717458569E-16,0.));
#344=CARTESIAN_POINT('Origin',(0.,0.,7.15));
#345=CARTESIAN_POINT('Origin',(0.,0.,13.5));
#346=CARTESIAN_POINT('Origin',(0.,0.,0.));
#347=CARTESIAN_POINT('',(6.35,-13.5,7.77650717458569E-16));
#348=CARTESIAN_POINT('Origin',(0.,-13.5,0.));
#349=CARTESIAN_POINT('',(6.35,-7.15,-7.77650717458569E-16));
#350=CARTESIAN_POINT('',(6.35,0.,7.77650717458569E-16));
#351=CARTESIAN_POINT('Origin',(0.,-7.15,0.));
#352=CARTESIAN_POINT('Origin',(0.,-13.5,0.));
#353=CARTESIAN_POINT('Origin',(0.,0.,-7.15));
#354=CARTESIAN_POINT('',(7.15,-7.15,-7.15));
#355=CARTESIAN_POINT('',(-7.15,-7.15,-7.15));
#356=CARTESIAN_POINT('',(-7.15,-7.15,-7.15));
#357=CARTESIAN_POINT('',(-7.15,7.15,-7.15));
#358=CARTESIAN_POINT('',(-7.15,7.15,-7.15));
#359=CARTESIAN_POINT('',(7.15,7.15,-7.15));
#360=CARTESIAN_POINT('',(7.15,7.15,-7.15));
#361=CARTESIAN_POINT('',(7.15,-7.15,-7.15));
#362=CARTESIAN_POINT('Origin',(-7.15,7.15,0.));
#363=CARTESIAN_POINT('',(-7.15,-7.15,7.15));
#364=CARTESIAN_POINT('',(-7.15,-7.15,0.));
#365=CARTESIAN_POINT('',(-7.15,7.15,7.15));
#366=CARTESIAN_POINT('',(-7.15,7.15,7.15));
#367=CARTESIAN_POINT('',(-7.15,7.15,0.));
#368=CARTESIAN_POINT('Origin',(7.15,7.15,0.));
#369=CARTESIAN_POINT('',(7.15,7.15,7.15));
#370=CARTESIAN_POINT('',(7.15,7.15,7.15));
#371=CARTESIAN_POINT('',(7.15,7.15,0.));
#372=CARTESIAN_POINT('Origin',(7.15,-7.15,0.));
#373=CARTESIAN_POINT('',(7.15,-7.15,7.15));
#374=CARTESIAN_POINT('',(7.15,-7.15,7.15));
#375=CARTESIAN_POINT('',(7.15,-7.15,0.));
#376=CARTESIAN_POINT('Origin',(-7.15,-7.15,0.));
#377=CARTESIAN_POINT('',(-7.15,-7.15,7.15));
#378=CARTESIAN_POINT('Origin',(0.,0.,7.15));
#379=UNCERTAINTY_MEASURE_WITH_UNIT(LENGTH_MEASURE(0.01),#383,
'DISTANCE_ACCURACY_VALUE',
'Maximum model space distance between geometric entities at asserted c
onnectivities');
#380=UNCERTAINTY_MEASURE_WITH_UNIT(LENGTH_MEASURE(0.01),#383,
'DISTANCE_ACCURACY_VALUE',
'Maximum model space distance between geometric entities at asserted c
onnectivities');
#381=(
GEOMETRIC_REPRESENTATION_CONTEXT(3)
GLOBAL_UNCERTAINTY_ASSIGNED_CONTEXT((#379))
GLOBAL_UNIT_ASSIGNED_CONTEXT((#383,#385,#386))
REPRESENTATION_CONTEXT('','3D')
);
#382=(
GEOMETRIC_REPRESENTATION_CONTEXT(3)
GLOBAL_UNCERTAINTY_ASSIGNED_CONTEXT((#380))
GLOBAL_UNIT_ASSIGNED_CONTEXT((#383,#385,#386))
REPRESENTATION_CONTEXT('','3D')
);
#383=(
LENGTH_UNIT()
NAMED_UNIT(*)
SI_UNIT(.MILLI.,.METRE.)
);
#384=(
LENGTH_UNIT()
NAMED_UNIT(*)
SI_UNIT(.CENTI.,.METRE.)
);
#385=(
NAMED_UNIT(*)
PLANE_ANGLE_UNIT()
SI_UNIT($,.RADIAN.)
);
#386=(
NAMED_UNIT(*)
SI_UNIT($,.STERADIAN.)
SOLID_ANGLE_UNIT()
);
#387=SHAPE_DEFINITION_REPRESENTATION(#388,#389);
#388=PRODUCT_DEFINITION_SHAPE('',$,#391);
#389=SHAPE_REPRESENTATION('',(#234),#381);
#390=PRODUCT_DEFINITION_CONTEXT('part definition',#395,'design');
#391=PRODUCT_DEFINITION('C6E-8','SM8E6',#392,#390);
#392=PRODUCT_DEFINITION_FORMATION('',$,#397);
#393=PRODUCT_RELATED_PRODUCT_CATEGORY('SM8E6','SM8E6',(#397));
#394=APPLICATION_PROTOCOL_DEFINITION('international standard',
'automotive_design',2009,#395);
#395=APPLICATION_CONTEXT(
'Core Data for Automotive Mechanical Design Process');
#396=PRODUCT_CONTEXT('part definition',#395,'mechanical');
#397=PRODUCT('C6E-8','SM8E6',$,(#396));
#398=PRESENTATION_STYLE_ASSIGNMENT((#399));
#399=SURFACE_STYLE_USAGE(.BOTH.,#402);
#400=SURFACE_STYLE_RENDERING_WITH_PROPERTIES($,#406,(#401));
#401=SURFACE_STYLE_TRANSPARENT(0.);
#402=SURFACE_SIDE_STYLE('',(#403,#400));
#403=SURFACE_STYLE_FILL_AREA(#404);
#404=FILL_AREA_STYLE('',(#405));
#405=FILL_AREA_STYLE_COLOUR('',#406);
#406=COLOUR_RGB('',0.745098039215686,0.737254901960784,0.729411764705882);
ENDSEC;
END-ISO-10303-21;
