ISO-10303-21;
HEADER;
/* Generated by software containing ST-Developer
 * from STEP Tools, Inc. (www.steptools.com) 
 */

FILE_DESCRIPTION(
/* description */ (''),
/* implementation_level */ '2;1');

FILE_NAME(
/* name */ 'Z:\\Geberit\\Export\\NewStep\\33730.stp',
/* time_stamp */ '2014-04-01T20:24:21+02:00',
/* author */ ('bruh'),
/* organization */ (''),
/* preprocessor_version */ 'ST-DEVELOPER v15.2',
/* originating_system */ 'Autodesk Inventor 2014',
/* authorisation */ '');

FILE_SCHEMA (('AUTOMOTIVE_DESIGN { 1 0 10303 214 3 1 1 }'));
ENDSEC;

DATA;
#10=ITEM_DEFINED_TRANSFORMATION($,$,#312,#359);
#11=ITEM_DEFINED_TRANSFORMATION($,$,#349,#360);
#12=(
REPRESENTATION_RELATIONSHIP($,$,#554,#556)
REPRESENTATION_RELATIONSHIP_WITH_TRANSFORMATION(#10)
SHAPE_REPRESENTATION_RELATIONSHIP()
);
#13=(
REPRESENTATION_RELATIONSHIP($,$,#555,#556)
REPRESENTATION_RELATIONSHIP_WITH_TRANSFORMATION(#11)
SHAPE_REPRESENTATION_RELATIONSHIP()
);
#14=CONTEXT_DEPENDENT_SHAPE_REPRESENTATION(#12,#552);
#15=CONTEXT_DEPENDENT_SHAPE_REPRESENTATION(#13,#553);
#16=NEXT_ASSEMBLY_USAGE_OCCURRENCE('100197:1',$,$,#560,#558,$);
#17=NEXT_ASSEMBLY_USAGE_OCCURRENCE('MAP Rohrende d88,9 L128:1',$,$,#560,
#559,$);
#18=SHAPE_REPRESENTATION_RELATIONSHIP('SRR','None',#554,#20);
#19=SHAPE_REPRESENTATION_RELATIONSHIP('SRR','None',#555,#21);
#20=ADVANCED_BREP_SHAPE_REPRESENTATION($,(#310),#537);
#21=ADVANCED_BREP_SHAPE_REPRESENTATION($,(#311),#538);
#22=PLANE($,#316);
#23=PLANE($,#344);
#24=PLANE($,#348);
#25=PLANE($,#356);
#26=PLANE($,#357);
#27=FACE_BOUND($,#80,.T.);
#28=FACE_BOUND($,#81,.T.);
#29=FACE_BOUND($,#82,.T.);
#30=FACE_BOUND($,#84,.T.);
#31=FACE_BOUND($,#86,.T.);
#32=FACE_BOUND($,#88,.T.);
#33=FACE_BOUND($,#90,.T.);
#34=FACE_BOUND($,#92,.T.);
#35=FACE_BOUND($,#94,.T.);
#36=FACE_BOUND($,#96,.T.);
#37=FACE_BOUND($,#98,.T.);
#38=FACE_BOUND($,#100,.T.);
#39=FACE_BOUND($,#101,.T.);
#40=FACE_BOUND($,#102,.T.);
#41=FACE_BOUND($,#103,.T.);
#42=FACE_BOUND($,#104,.T.);
#43=FACE_BOUND($,#105,.T.);
#44=FACE_BOUND($,#106,.T.);
#45=FACE_BOUND($,#107,.T.);
#46=FACE_BOUND($,#108,.T.);
#47=FACE_BOUND($,#109,.T.);
#48=FACE_BOUND($,#110,.T.);
#49=FACE_BOUND($,#112,.T.);
#50=FACE_BOUND($,#113,.T.);
#51=FACE_BOUND($,#114,.T.);
#52=FACE_BOUND($,#115,.T.);
#53=FACE_BOUND($,#116,.T.);
#54=FACE_BOUND($,#117,.T.);
#55=FACE_BOUND($,#118,.T.);
#56=FACE_BOUND($,#119,.T.);
#57=FACE_BOUND($,#120,.T.);
#58=FACE_BOUND($,#121,.T.);
#59=FACE_BOUND($,#122,.T.);
#60=FACE_BOUND($,#124,.T.);
#61=FACE_BOUND($,#126,.T.);
#62=FACE_BOUND($,#127,.T.);
#63=FACE_BOUND($,#128,.T.);
#64=FACE_BOUND($,#129,.T.);
#65=FACE_BOUND($,#130,.T.);
#66=FACE_OUTER_BOUND($,#79,.T.);
#67=FACE_OUTER_BOUND($,#83,.T.);
#68=FACE_OUTER_BOUND($,#85,.T.);
#69=FACE_OUTER_BOUND($,#87,.T.);
#70=FACE_OUTER_BOUND($,#89,.T.);
#71=FACE_OUTER_BOUND($,#91,.T.);
#72=FACE_OUTER_BOUND($,#93,.T.);
#73=FACE_OUTER_BOUND($,#95,.T.);
#74=FACE_OUTER_BOUND($,#97,.T.);
#75=FACE_OUTER_BOUND($,#99,.T.);
#76=FACE_OUTER_BOUND($,#111,.T.);
#77=FACE_OUTER_BOUND($,#123,.T.);
#78=FACE_OUTER_BOUND($,#125,.T.);
#79=EDGE_LOOP($,(#209));
#80=EDGE_LOOP($,(#210));
#81=EDGE_LOOP($,(#211));
#82=EDGE_LOOP($,(#212));
#83=EDGE_LOOP($,(#213));
#84=EDGE_LOOP($,(#214));
#85=EDGE_LOOP($,(#215));
#86=EDGE_LOOP($,(#216));
#87=EDGE_LOOP($,(#217));
#88=EDGE_LOOP($,(#218));
#89=EDGE_LOOP($,(#219));
#90=EDGE_LOOP($,(#220));
#91=EDGE_LOOP($,(#221));
#92=EDGE_LOOP($,(#222));
#93=EDGE_LOOP($,(#223));
#94=EDGE_LOOP($,(#224));
#95=EDGE_LOOP($,(#225));
#96=EDGE_LOOP($,(#226));
#97=EDGE_LOOP($,(#227));
#98=EDGE_LOOP($,(#228));
#99=EDGE_LOOP($,(#229));
#100=EDGE_LOOP($,(#230));
#101=EDGE_LOOP($,(#231));
#102=EDGE_LOOP($,(#232));
#103=EDGE_LOOP($,(#233));
#104=EDGE_LOOP($,(#234));
#105=EDGE_LOOP($,(#235));
#106=EDGE_LOOP($,(#236));
#107=EDGE_LOOP($,(#237));
#108=EDGE_LOOP($,(#238));
#109=EDGE_LOOP($,(#239));
#110=EDGE_LOOP($,(#240));
#111=EDGE_LOOP($,(#241));
#112=EDGE_LOOP($,(#242));
#113=EDGE_LOOP($,(#243));
#114=EDGE_LOOP($,(#244));
#115=EDGE_LOOP($,(#245));
#116=EDGE_LOOP($,(#246));
#117=EDGE_LOOP($,(#247));
#118=EDGE_LOOP($,(#248));
#119=EDGE_LOOP($,(#249));
#120=EDGE_LOOP($,(#250));
#121=EDGE_LOOP($,(#251));
#122=EDGE_LOOP($,(#252));
#123=EDGE_LOOP($,(#253));
#124=EDGE_LOOP($,(#254));
#125=EDGE_LOOP($,(#255));
#126=EDGE_LOOP($,(#256));
#127=EDGE_LOOP($,(#257));
#128=EDGE_LOOP($,(#258));
#129=EDGE_LOOP($,(#259));
#130=EDGE_LOOP($,(#260));
#131=CIRCLE($,#314,44.65);
#132=CIRCLE($,#315,44.65);
#133=CIRCLE($,#317,44.35);
#134=CIRCLE($,#319,9.);
#135=CIRCLE($,#320,9.);
#136=CIRCLE($,#322,9.);
#137=CIRCLE($,#323,9.);
#138=CIRCLE($,#325,9.);
#139=CIRCLE($,#326,9.);
#140=CIRCLE($,#328,9.);
#141=CIRCLE($,#329,9.);
#142=CIRCLE($,#331,9.);
#143=CIRCLE($,#332,9.);
#144=CIRCLE($,#334,9.);
#145=CIRCLE($,#335,9.);
#146=CIRCLE($,#337,9.);
#147=CIRCLE($,#338,9.);
#148=CIRCLE($,#340,9.);
#149=CIRCLE($,#341,9.);
#150=CIRCLE($,#343,44.35);
#151=CIRCLE($,#345,100.);
#152=CIRCLE($,#347,100.);
#153=CIRCLE($,#351,42.45);
#154=CIRCLE($,#352,42.45);
#155=CIRCLE($,#354,44.45);
#156=CIRCLE($,#355,44.45);
#157=VERTEX_POINT($,#461);
#158=VERTEX_POINT($,#463);
#159=VERTEX_POINT($,#466);
#160=VERTEX_POINT($,#469);
#161=VERTEX_POINT($,#471);
#162=VERTEX_POINT($,#474);
#163=VERTEX_POINT($,#476);
#164=VERTEX_POINT($,#479);
#165=VERTEX_POINT($,#481);
#166=VERTEX_POINT($,#484);
#167=VERTEX_POINT($,#486);
#168=VERTEX_POINT($,#489);
#169=VERTEX_POINT($,#491);
#170=VERTEX_POINT($,#494);
#171=VERTEX_POINT($,#496);
#172=VERTEX_POINT($,#499);
#173=VERTEX_POINT($,#501);
#174=VERTEX_POINT($,#504);
#175=VERTEX_POINT($,#506);
#176=VERTEX_POINT($,#509);
#177=VERTEX_POINT($,#512);
#178=VERTEX_POINT($,#515);
#179=VERTEX_POINT($,#520);
#180=VERTEX_POINT($,#522);
#181=VERTEX_POINT($,#525);
#182=VERTEX_POINT($,#527);
#183=EDGE_CURVE($,#157,#157,#131,.T.);
#184=EDGE_CURVE($,#158,#158,#132,.T.);
#185=EDGE_CURVE($,#159,#159,#133,.T.);
#186=EDGE_CURVE($,#160,#160,#134,.T.);
#187=EDGE_CURVE($,#161,#161,#135,.T.);
#188=EDGE_CURVE($,#162,#162,#136,.T.);
#189=EDGE_CURVE($,#163,#163,#137,.T.);
#190=EDGE_CURVE($,#164,#164,#138,.T.);
#191=EDGE_CURVE($,#165,#165,#139,.T.);
#192=EDGE_CURVE($,#166,#166,#140,.T.);
#193=EDGE_CURVE($,#167,#167,#141,.T.);
#194=EDGE_CURVE($,#168,#168,#142,.T.);
#195=EDGE_CURVE($,#169,#169,#143,.T.);
#196=EDGE_CURVE($,#170,#170,#144,.T.);
#197=EDGE_CURVE($,#171,#171,#145,.T.);
#198=EDGE_CURVE($,#172,#172,#146,.T.);
#199=EDGE_CURVE($,#173,#173,#147,.T.);
#200=EDGE_CURVE($,#174,#174,#148,.T.);
#201=EDGE_CURVE($,#175,#175,#149,.T.);
#202=EDGE_CURVE($,#176,#176,#150,.T.);
#203=EDGE_CURVE($,#177,#177,#151,.T.);
#204=EDGE_CURVE($,#178,#178,#152,.T.);
#205=EDGE_CURVE($,#179,#179,#153,.T.);
#206=EDGE_CURVE($,#180,#180,#154,.T.);
#207=EDGE_CURVE($,#181,#181,#155,.T.);
#208=EDGE_CURVE($,#182,#182,#156,.T.);
#209=ORIENTED_EDGE($,*,*,#183,.F.);
#210=ORIENTED_EDGE($,*,*,#184,.F.);
#211=ORIENTED_EDGE($,*,*,#185,.T.);
#212=ORIENTED_EDGE($,*,*,#184,.T.);
#213=ORIENTED_EDGE($,*,*,#186,.F.);
#214=ORIENTED_EDGE($,*,*,#187,.F.);
#215=ORIENTED_EDGE($,*,*,#188,.F.);
#216=ORIENTED_EDGE($,*,*,#189,.F.);
#217=ORIENTED_EDGE($,*,*,#190,.F.);
#218=ORIENTED_EDGE($,*,*,#191,.F.);
#219=ORIENTED_EDGE($,*,*,#192,.F.);
#220=ORIENTED_EDGE($,*,*,#193,.F.);
#221=ORIENTED_EDGE($,*,*,#194,.F.);
#222=ORIENTED_EDGE($,*,*,#195,.F.);
#223=ORIENTED_EDGE($,*,*,#196,.F.);
#224=ORIENTED_EDGE($,*,*,#197,.F.);
#225=ORIENTED_EDGE($,*,*,#198,.F.);
#226=ORIENTED_EDGE($,*,*,#199,.F.);
#227=ORIENTED_EDGE($,*,*,#200,.F.);
#228=ORIENTED_EDGE($,*,*,#201,.F.);
#229=ORIENTED_EDGE($,*,*,#185,.F.);
#230=ORIENTED_EDGE($,*,*,#202,.T.);
#231=ORIENTED_EDGE($,*,*,#183,.T.);
#232=ORIENTED_EDGE($,*,*,#186,.T.);
#233=ORIENTED_EDGE($,*,*,#188,.T.);
#234=ORIENTED_EDGE($,*,*,#190,.T.);
#235=ORIENTED_EDGE($,*,*,#192,.T.);
#236=ORIENTED_EDGE($,*,*,#194,.T.);
#237=ORIENTED_EDGE($,*,*,#196,.T.);
#238=ORIENTED_EDGE($,*,*,#198,.T.);
#239=ORIENTED_EDGE($,*,*,#200,.T.);
#240=ORIENTED_EDGE($,*,*,#203,.F.);
#241=ORIENTED_EDGE($,*,*,#204,.F.);
#242=ORIENTED_EDGE($,*,*,#203,.T.);
#243=ORIENTED_EDGE($,*,*,#187,.T.);
#244=ORIENTED_EDGE($,*,*,#189,.T.);
#245=ORIENTED_EDGE($,*,*,#191,.T.);
#246=ORIENTED_EDGE($,*,*,#193,.T.);
#247=ORIENTED_EDGE($,*,*,#195,.T.);
#248=ORIENTED_EDGE($,*,*,#197,.T.);
#249=ORIENTED_EDGE($,*,*,#199,.T.);
#250=ORIENTED_EDGE($,*,*,#201,.T.);
#251=ORIENTED_EDGE($,*,*,#202,.F.);
#252=ORIENTED_EDGE($,*,*,#204,.T.);
#253=ORIENTED_EDGE($,*,*,#205,.F.);
#254=ORIENTED_EDGE($,*,*,#206,.F.);
#255=ORIENTED_EDGE($,*,*,#207,.T.);
#256=ORIENTED_EDGE($,*,*,#208,.F.);
#257=ORIENTED_EDGE($,*,*,#205,.T.);
#258=ORIENTED_EDGE($,*,*,#207,.F.);
#259=ORIENTED_EDGE($,*,*,#206,.T.);
#260=ORIENTED_EDGE($,*,*,#208,.T.);
#261=CYLINDRICAL_SURFACE($,#313,44.65);
#262=CYLINDRICAL_SURFACE($,#318,9.);
#263=CYLINDRICAL_SURFACE($,#321,9.);
#264=CYLINDRICAL_SURFACE($,#324,9.);
#265=CYLINDRICAL_SURFACE($,#327,9.);
#266=CYLINDRICAL_SURFACE($,#330,9.);
#267=CYLINDRICAL_SURFACE($,#333,9.);
#268=CYLINDRICAL_SURFACE($,#336,9.);
#269=CYLINDRICAL_SURFACE($,#339,9.);
#270=CYLINDRICAL_SURFACE($,#342,44.35);
#271=CYLINDRICAL_SURFACE($,#346,100.);
#272=CYLINDRICAL_SURFACE($,#350,42.45);
#273=CYLINDRICAL_SURFACE($,#353,44.45);
#274=STYLED_ITEM($,(#570),#290);
#275=STYLED_ITEM($,(#570),#291);
#276=STYLED_ITEM($,(#570),#292);
#277=STYLED_ITEM($,(#570),#293);
#278=STYLED_ITEM($,(#570),#294);
#279=STYLED_ITEM($,(#570),#295);
#280=STYLED_ITEM($,(#570),#296);
#281=STYLED_ITEM($,(#570),#297);
#282=STYLED_ITEM($,(#570),#298);
#283=STYLED_ITEM($,(#570),#299);
#284=STYLED_ITEM($,(#570),#300);
#285=STYLED_ITEM($,(#570),#301);
#286=STYLED_ITEM($,(#570),#302);
#287=STYLED_ITEM($,(#570),#303);
#288=STYLED_ITEM($,(#570),#310);
#289=STYLED_ITEM($,(#570),#311);
#290=ADVANCED_FACE($,(#66,#27),#261,.F.);
#291=ADVANCED_FACE($,(#28,#29),#22,.T.);
#292=ADVANCED_FACE($,(#67,#30),#262,.F.);
#293=ADVANCED_FACE($,(#68,#31),#263,.F.);
#294=ADVANCED_FACE($,(#69,#32),#264,.F.);
#295=ADVANCED_FACE($,(#70,#33),#265,.F.);
#296=ADVANCED_FACE($,(#71,#34),#266,.F.);
#297=ADVANCED_FACE($,(#72,#35),#267,.F.);
#298=ADVANCED_FACE($,(#73,#36),#268,.F.);
#299=ADVANCED_FACE($,(#74,#37),#269,.F.);
#300=ADVANCED_FACE($,(#75,#38),#270,.F.);
#301=ADVANCED_FACE($,(#39,#40,#41,#42,#43,#44,#45,#46,#47,#48),#23,.T.);
#302=ADVANCED_FACE($,(#76,#49),#271,.T.);
#303=ADVANCED_FACE($,(#50,#51,#52,#53,#54,#55,#56,#57,#58,#59),#24,.T.);
#304=ADVANCED_FACE($,(#77,#60),#272,.F.);
#305=ADVANCED_FACE($,(#78,#61),#273,.T.);
#306=ADVANCED_FACE($,(#62,#63),#25,.F.);
#307=ADVANCED_FACE($,(#64,#65),#26,.T.);
#308=CLOSED_SHELL($,(#290,#291,#292,#293,#294,#295,#296,#297,#298,#299,
#300,#301,#302,#303));
#309=CLOSED_SHELL($,(#304,#305,#306,#307));
#310=MANIFOLD_SOLID_BREP('Volumenk\X\F6rper1',#308);
#311=MANIFOLD_SOLID_BREP('Volumenk\X\F6rper1',#309);
#312=AXIS2_PLACEMENT_3D('placement',#459,#361,#362);
#313=AXIS2_PLACEMENT_3D($,#460,#363,#364);
#314=AXIS2_PLACEMENT_3D($,#462,#365,#366);
#315=AXIS2_PLACEMENT_3D($,#464,#367,#368);
#316=AXIS2_PLACEMENT_3D($,#465,#369,#370);
#317=AXIS2_PLACEMENT_3D($,#467,#371,#372);
#318=AXIS2_PLACEMENT_3D($,#468,#373,#374);
#319=AXIS2_PLACEMENT_3D($,#470,#375,#376);
#320=AXIS2_PLACEMENT_3D($,#472,#377,#378);
#321=AXIS2_PLACEMENT_3D($,#473,#379,#380);
#322=AXIS2_PLACEMENT_3D($,#475,#381,#382);
#323=AXIS2_PLACEMENT_3D($,#477,#383,#384);
#324=AXIS2_PLACEMENT_3D($,#478,#385,#386);
#325=AXIS2_PLACEMENT_3D($,#480,#387,#388);
#326=AXIS2_PLACEMENT_3D($,#482,#389,#390);
#327=AXIS2_PLACEMENT_3D($,#483,#391,#392);
#328=AXIS2_PLACEMENT_3D($,#485,#393,#394);
#329=AXIS2_PLACEMENT_3D($,#487,#395,#396);
#330=AXIS2_PLACEMENT_3D($,#488,#397,#398);
#331=AXIS2_PLACEMENT_3D($,#490,#399,#400);
#332=AXIS2_PLACEMENT_3D($,#492,#401,#402);
#333=AXIS2_PLACEMENT_3D($,#493,#403,#404);
#334=AXIS2_PLACEMENT_3D($,#495,#405,#406);
#335=AXIS2_PLACEMENT_3D($,#497,#407,#408);
#336=AXIS2_PLACEMENT_3D($,#498,#409,#410);
#337=AXIS2_PLACEMENT_3D($,#500,#411,#412);
#338=AXIS2_PLACEMENT_3D($,#502,#413,#414);
#339=AXIS2_PLACEMENT_3D($,#503,#415,#416);
#340=AXIS2_PLACEMENT_3D($,#505,#417,#418);
#341=AXIS2_PLACEMENT_3D($,#507,#419,#420);
#342=AXIS2_PLACEMENT_3D($,#508,#421,#422);
#343=AXIS2_PLACEMENT_3D($,#510,#423,#424);
#344=AXIS2_PLACEMENT_3D($,#511,#425,#426);
#345=AXIS2_PLACEMENT_3D($,#513,#427,#428);
#346=AXIS2_PLACEMENT_3D($,#514,#429,#430);
#347=AXIS2_PLACEMENT_3D($,#516,#431,#432);
#348=AXIS2_PLACEMENT_3D($,#517,#433,#434);
#349=AXIS2_PLACEMENT_3D('placement',#518,#435,#436);
#350=AXIS2_PLACEMENT_3D($,#519,#437,#438);
#351=AXIS2_PLACEMENT_3D($,#521,#439,#440);
#352=AXIS2_PLACEMENT_3D($,#523,#441,#442);
#353=AXIS2_PLACEMENT_3D($,#524,#443,#444);
#354=AXIS2_PLACEMENT_3D($,#526,#445,#446);
#355=AXIS2_PLACEMENT_3D($,#528,#447,#448);
#356=AXIS2_PLACEMENT_3D($,#529,#449,#450);
#357=AXIS2_PLACEMENT_3D($,#530,#451,#452);
#358=AXIS2_PLACEMENT_3D('placement',#531,#453,#454);
#359=AXIS2_PLACEMENT_3D($,#532,#455,#456);
#360=AXIS2_PLACEMENT_3D($,#533,#457,#458);
#361=DIRECTION('axis',(0.,0.,1.));
#362=DIRECTION('refdir',(1.,0.,0.));
#363=DIRECTION('center_axis',(-1.,-2.43119894409492E-016,0.));
#364=DIRECTION('ref_axis',(2.43119894409492E-016,-1.,0.));
#365=DIRECTION('center_axis',(1.,2.43119894409492E-016,0.));
#366=DIRECTION('ref_axis',(2.43119894409492E-016,-1.,0.));
#367=DIRECTION('center_axis',(-1.,-2.43119894409492E-016,0.));
#368=DIRECTION('ref_axis',(2.43119894409492E-016,-1.,0.));
#369=DIRECTION('center_axis',(-1.,-2.43119894409492E-016,0.));
#370=DIRECTION('ref_axis',(2.66453525910038E-016,-1.,0.));
#371=DIRECTION('center_axis',(1.,2.43119894409492E-016,0.));
#372=DIRECTION('ref_axis',(-2.444163671988E-016,1.,0.));
#373=DIRECTION('center_axis',(-1.,-2.09345661157836E-016,2.09345661157836E-016));
#374=DIRECTION('ref_axis',(0.,0.707106781186548,0.707106781186547));
#375=DIRECTION('center_axis',(1.,2.43119894409492E-016,0.));
#376=DIRECTION('ref_axis',(0.,0.707106781186548,0.707106781186547));
#377=DIRECTION('center_axis',(-1.,-2.43119894409492E-016,0.));
#378=DIRECTION('ref_axis',(0.,0.707106781186548,0.707106781186547));
#379=DIRECTION('center_axis',(-1.,4.93038065763132E-032,2.96059473233374E-016));
#380=DIRECTION('ref_axis',(0.,1.,-1.2335811384724E-016));
#381=DIRECTION('center_axis',(1.,2.43119894409492E-016,0.));
#382=DIRECTION('ref_axis',(0.,1.,-1.2335811384724E-016));
#383=DIRECTION('center_axis',(-1.,-2.43119894409492E-016,0.));
#384=DIRECTION('ref_axis',(0.,1.,-1.2335811384724E-016));
#385=DIRECTION('center_axis',(-1.,2.09345661157836E-016,2.09345661157836E-016));
#386=DIRECTION('ref_axis',(0.,0.707106781186547,-0.707106781186548));
#387=DIRECTION('center_axis',(1.,2.43119894409492E-016,0.));
#388=DIRECTION('ref_axis',(0.,0.707106781186547,-0.707106781186548));
#389=DIRECTION('center_axis',(-1.,-2.43119894409492E-016,0.));
#390=DIRECTION('ref_axis',(0.,0.707106781186547,-0.707106781186548));
#391=DIRECTION('center_axis',(-1.,2.96059473233374E-016,-4.93038065763132E-032));
#392=DIRECTION('ref_axis',(0.,-1.2335811384724E-016,-1.));
#393=DIRECTION('center_axis',(1.,2.43119894409492E-016,0.));
#394=DIRECTION('ref_axis',(0.,-1.2335811384724E-016,-1.));
#395=DIRECTION('center_axis',(-1.,-2.43119894409492E-016,0.));
#396=DIRECTION('ref_axis',(0.,-1.2335811384724E-016,-1.));
#397=DIRECTION('center_axis',(-1.,2.09345661157836E-016,-2.09345661157836E-016));
#398=DIRECTION('ref_axis',(0.,-0.707106781186548,-0.707106781186547));
#399=DIRECTION('center_axis',(1.,2.43119894409492E-016,0.));
#400=DIRECTION('ref_axis',(0.,-0.707106781186548,-0.707106781186547));
#401=DIRECTION('center_axis',(-1.,-2.43119894409492E-016,0.));
#402=DIRECTION('ref_axis',(0.,-0.707106781186548,-0.707106781186547));
#403=DIRECTION('center_axis',(-1.,0.,-2.96059473233374E-016));
#404=DIRECTION('ref_axis',(0.,-1.,0.));
#405=DIRECTION('center_axis',(1.,2.43119894409492E-016,0.));
#406=DIRECTION('ref_axis',(0.,-1.,0.));
#407=DIRECTION('center_axis',(-1.,-2.43119894409492E-016,0.));
#408=DIRECTION('ref_axis',(0.,-1.,0.));
#409=DIRECTION('center_axis',(-1.,-2.09345661157836E-016,-2.09345661157836E-016));
#410=DIRECTION('ref_axis',(0.,-0.707106781186547,0.707106781186548));
#411=DIRECTION('center_axis',(1.,2.43119894409492E-016,0.));
#412=DIRECTION('ref_axis',(0.,-0.707106781186547,0.707106781186548));
#413=DIRECTION('center_axis',(-1.,-2.43119894409492E-016,0.));
#414=DIRECTION('ref_axis',(0.,-0.707106781186547,0.707106781186548));
#415=DIRECTION('center_axis',(-1.,-2.96059473233374E-016,0.));
#416=DIRECTION('ref_axis',(0.,0.,1.));
#417=DIRECTION('center_axis',(1.,2.43119894409492E-016,0.));
#418=DIRECTION('ref_axis',(0.,0.,1.));
#419=DIRECTION('center_axis',(-1.,-2.43119894409492E-016,0.));
#420=DIRECTION('ref_axis',(0.,0.,1.));
#421=DIRECTION('center_axis',(1.,2.43119894409492E-016,0.));
#422=DIRECTION('ref_axis',(-2.444163671988E-016,1.,0.));
#423=DIRECTION('center_axis',(1.,2.43119894409492E-016,0.));
#424=DIRECTION('ref_axis',(-2.444163671988E-016,1.,0.));
#425=DIRECTION('center_axis',(-1.,-2.43119894409492E-016,0.));
#426=DIRECTION('ref_axis',(0.,0.,1.));
#427=DIRECTION('center_axis',(1.,2.43119894409492E-016,0.));
#428=DIRECTION('ref_axis',(-2.444163671988E-016,1.,0.));
#429=DIRECTION('center_axis',(1.,2.43119894409492E-016,0.));
#430=DIRECTION('ref_axis',(-2.444163671988E-016,1.,0.));
#431=DIRECTION('center_axis',(1.,2.43119894409492E-016,0.));
#432=DIRECTION('ref_axis',(-2.444163671988E-016,1.,0.));
#433=DIRECTION('center_axis',(1.,2.43119894409492E-016,0.));
#434=DIRECTION('ref_axis',(0.,0.,-1.));
#435=DIRECTION('axis',(0.,0.,1.));
#436=DIRECTION('refdir',(1.,0.,0.));
#437=DIRECTION('center_axis',(0.,0.,1.));
#438=DIRECTION('ref_axis',(-1.,0.,0.));
#439=DIRECTION('center_axis',(0.,0.,-1.));
#440=DIRECTION('ref_axis',(-1.,0.,0.));
#441=DIRECTION('center_axis',(0.,0.,1.));
#442=DIRECTION('ref_axis',(-1.,0.,0.));
#443=DIRECTION('center_axis',(0.,0.,1.));
#444=DIRECTION('ref_axis',(-1.,0.,0.));
#445=DIRECTION('center_axis',(0.,0.,-1.));
#446=DIRECTION('ref_axis',(-1.,0.,0.));
#447=DIRECTION('center_axis',(0.,0.,-1.));
#448=DIRECTION('ref_axis',(-1.,0.,0.));
#449=DIRECTION('center_axis',(0.,0.,-1.));
#450=DIRECTION('ref_axis',(-1.,0.,0.));
#451=DIRECTION('center_axis',(0.,0.,-1.));
#452=DIRECTION('ref_axis',(-1.,0.,0.));
#453=DIRECTION('axis',(0.,0.,1.));
#454=DIRECTION('refdir',(1.,0.,0.));
#455=DIRECTION($,(0.,0.,1.));
#456=DIRECTION($,(1.,0.,0.));
#457=DIRECTION($,(1.,2.43119894409491E-016,1.10933564796705E-031));
#458=DIRECTION($,(-5.06572078375998E-017,0.208363071070923,-0.97805154803512));
#459=CARTESIAN_POINT('',(0.,0.,0.));
#460=CARTESIAN_POINT('Origin',(2.49999999999998,6.07799736023727E-016,0.));
#461=CARTESIAN_POINT('',(-4.74427760977047E-015,-44.65,0.));
#462=CARTESIAN_POINT('Origin',(-1.55431223447522E-014,-4.06756404254584E-030,
0.));
#463=CARTESIAN_POINT('',(5.,-44.65,0.));
#464=CARTESIAN_POINT('Origin',(4.99999999999998,1.21559947204746E-015,0.));
#465=CARTESIAN_POINT('Origin',(4.99999999999998,1.21559947204746E-015,0.));
#466=CARTESIAN_POINT('',(4.99999999999996,44.35,0.));
#467=CARTESIAN_POINT('Origin',(4.99999999999998,1.21559947204745E-015,0.));
#468=CARTESIAN_POINT('Origin',(20.,56.5685424949238,-56.5685424949238));
#469=CARTESIAN_POINT('',(-3.77475828372553E-014,50.2045814642448,-62.9325035256027));
#470=CARTESIAN_POINT('Origin',(-4.21884749357559E-014,56.5685424949238,
-56.5685424949238));
#471=CARTESIAN_POINT('',(20.,50.2045814642449,-62.9325035256027));
#472=CARTESIAN_POINT('Origin',(19.9999999999999,56.5685424949238,-56.5685424949238));
#473=CARTESIAN_POINT('Origin',(20.,-1.77635683940025E-014,-80.));
#474=CARTESIAN_POINT('',(-3.77475828372553E-014,-9.,-80.));
#475=CARTESIAN_POINT('Origin',(-5.10702591327572E-014,-1.77635683940025E-014,
-80.));
#476=CARTESIAN_POINT('',(20.,-9.00000000000001,-80.));
#477=CARTESIAN_POINT('Origin',(19.9999999999999,-1.77635683940025E-014,
-80.));
#478=CARTESIAN_POINT('Origin',(20.,-56.5685424949238,-56.5685424949238));
#479=CARTESIAN_POINT('',(-3.77475828372553E-014,-62.9325035256027,-50.2045814642449));
#480=CARTESIAN_POINT('Origin',(-6.43929354282591E-014,-56.5685424949238,
-56.5685424949238));
#481=CARTESIAN_POINT('',(20.,-62.9325035256027,-50.2045814642449));
#482=CARTESIAN_POINT('Origin',(19.9999999999999,-56.5685424949238,-56.5685424949238));
#483=CARTESIAN_POINT('Origin',(20.,-80.,1.77635683940025E-014));
#484=CARTESIAN_POINT('',(-3.77475828372553E-014,-80.,9.));
#485=CARTESIAN_POINT('Origin',(-6.88338275267597E-014,-80.,1.77635683940025E-014));
#486=CARTESIAN_POINT('',(20.,-80.,9.00000000000001));
#487=CARTESIAN_POINT('Origin',(19.9999999999999,-80.,1.77635683940025E-014));
#488=CARTESIAN_POINT('Origin',(20.,-56.5685424949238,56.5685424949238));
#489=CARTESIAN_POINT('',(-3.77475828372553E-014,-50.2045814642449,62.9325035256027));
#490=CARTESIAN_POINT('Origin',(-6.43929354282591E-014,-56.5685424949238,
56.5685424949238));
#491=CARTESIAN_POINT('',(20.,-50.2045814642449,62.9325035256027));
#492=CARTESIAN_POINT('Origin',(19.9999999999999,-56.5685424949238,56.5685424949238));
#493=CARTESIAN_POINT('Origin',(20.,0.,80.));
#494=CARTESIAN_POINT('',(-3.77475828372553E-014,9.,80.));
#495=CARTESIAN_POINT('Origin',(-5.10702591327572E-014,0.,80.));
#496=CARTESIAN_POINT('',(20.,9.,80.));
#497=CARTESIAN_POINT('Origin',(19.9999999999999,0.,80.));
#498=CARTESIAN_POINT('Origin',(20.,56.5685424949238,56.5685424949238));
#499=CARTESIAN_POINT('',(-3.77475828372553E-014,62.9325035256027,50.2045814642449));
#500=CARTESIAN_POINT('Origin',(-4.21884749357559E-014,56.5685424949238,
56.5685424949238));
#501=CARTESIAN_POINT('',(20.,62.9325035256027,50.2045814642449));
#502=CARTESIAN_POINT('Origin',(19.9999999999999,56.5685424949238,56.5685424949238));
#503=CARTESIAN_POINT('Origin',(20.,80.,0.));
#504=CARTESIAN_POINT('',(-3.77475828372553E-014,80.,-9.));
#505=CARTESIAN_POINT('Origin',(-3.77475828372553E-014,80.,0.));
#506=CARTESIAN_POINT('',(20.,80.,-9.));
#507=CARTESIAN_POINT('Origin',(20.,80.,0.));
#508=CARTESIAN_POINT('Origin',(12.5,3.03899868011865E-015,0.));
#509=CARTESIAN_POINT('',(20.,44.35,0.));
#510=CARTESIAN_POINT('Origin',(20.,4.86239788818984E-015,0.));
#511=CARTESIAN_POINT('Origin',(-2.77555756156289E-014,50.,0.));
#512=CARTESIAN_POINT('',(-5.55111512312578E-014,100.,0.));
#513=CARTESIAN_POINT('Origin',(-3.5527136788005E-014,-8.87468518373638E-030,
0.));
#514=CARTESIAN_POINT('Origin',(9.99999999999997,2.43119894409491E-015,0.));
#515=CARTESIAN_POINT('',(19.9999999999999,100.,0.));
#516=CARTESIAN_POINT('Origin',(20.,4.86239788818984E-015,0.));
#517=CARTESIAN_POINT('Origin',(20.,72.175,0.));
#518=CARTESIAN_POINT('',(0.,0.,0.));
#519=CARTESIAN_POINT('Origin',(0.,0.,0.));
#520=CARTESIAN_POINT('',(42.45,5.19862566238051E-015,128.));
#521=CARTESIAN_POINT('Origin',(0.,0.,128.));
#522=CARTESIAN_POINT('',(42.45,5.19862566238051E-015,0.));
#523=CARTESIAN_POINT('Origin',(0.,0.,0.));
#524=CARTESIAN_POINT('Origin',(0.,0.,0.));
#525=CARTESIAN_POINT('',(44.45,5.44355502220998E-015,128.));
#526=CARTESIAN_POINT('Origin',(0.,0.,128.));
#527=CARTESIAN_POINT('',(44.45,5.44355502220998E-015,0.));
#528=CARTESIAN_POINT('Origin',(0.,0.,0.));
#529=CARTESIAN_POINT('Origin',(0.,0.,128.));
#530=CARTESIAN_POINT('Origin',(0.,0.,0.));
#531=CARTESIAN_POINT('',(0.,0.,0.));
#532=CARTESIAN_POINT($,(0.,0.,0.));
#533=CARTESIAN_POINT($,(-123.,-1.50661541010046E-014,2.10167878156888E-014));
#534=UNCERTAINTY_MEASURE_WITH_UNIT(LENGTH_MEASURE(0.01),#540,
'DISTANCE_ACCURACY_VALUE',
'Maximum model space distance between geometric entities at asserted c
onnectivities');
#535=UNCERTAINTY_MEASURE_WITH_UNIT(LENGTH_MEASURE(0.01),#540,
'DISTANCE_ACCURACY_VALUE',
'Maximum model space distance between geometric entities at asserted c
onnectivities');
#536=UNCERTAINTY_MEASURE_WITH_UNIT(LENGTH_MEASURE(0.01),#540,
'DISTANCE_ACCURACY_VALUE',
'Maximum model space distance between geometric entities at asserted c
onnectivities');
#537=(
GEOMETRIC_REPRESENTATION_CONTEXT(3)
GLOBAL_UNCERTAINTY_ASSIGNED_CONTEXT((#534))
GLOBAL_UNIT_ASSIGNED_CONTEXT((#540,#543,#541))
REPRESENTATION_CONTEXT('','3D')
);
#538=(
GEOMETRIC_REPRESENTATION_CONTEXT(3)
GLOBAL_UNCERTAINTY_ASSIGNED_CONTEXT((#535))
GLOBAL_UNIT_ASSIGNED_CONTEXT((#540,#543,#541))
REPRESENTATION_CONTEXT('','3D')
);
#539=(
GEOMETRIC_REPRESENTATION_CONTEXT(3)
GLOBAL_UNCERTAINTY_ASSIGNED_CONTEXT((#536))
GLOBAL_UNIT_ASSIGNED_CONTEXT((#540,#543,#541))
REPRESENTATION_CONTEXT('','3D')
);
#540=(
LENGTH_UNIT()
NAMED_UNIT(*)
SI_UNIT(.MILLI.,.METRE.)
);
#541=(
NAMED_UNIT(*)
SI_UNIT($,.STERADIAN.)
SOLID_ANGLE_UNIT()
);
#542=DIMENSIONAL_EXPONENTS(0.,0.,0.,0.,0.,0.,0.);
#543=(
CONVERSION_BASED_UNIT('degree',#545)
NAMED_UNIT(#542)
PLANE_ANGLE_UNIT()
);
#544=(
NAMED_UNIT(*)
PLANE_ANGLE_UNIT()
SI_UNIT($,.RADIAN.)
);
#545=PLANE_ANGLE_MEASURE_WITH_UNIT(PLANE_ANGLE_MEASURE(0.01745329252),#544);
#546=SHAPE_DEFINITION_REPRESENTATION(#549,#554);
#547=SHAPE_DEFINITION_REPRESENTATION(#550,#555);
#548=SHAPE_DEFINITION_REPRESENTATION(#551,#556);
#549=PRODUCT_DEFINITION_SHAPE('',$,#558);
#550=PRODUCT_DEFINITION_SHAPE('',$,#559);
#551=PRODUCT_DEFINITION_SHAPE('',$,#560);
#552=PRODUCT_DEFINITION_SHAPE($,$,#16);
#553=PRODUCT_DEFINITION_SHAPE($,$,#17);
#554=SHAPE_REPRESENTATION('',(#312),#537);
#555=SHAPE_REPRESENTATION('',(#349),#538);
#556=SHAPE_REPRESENTATION('',(#358,#359,#360),#539);
#557=PRODUCT_DEFINITION_CONTEXT('3D Mechanical Parts',#565,'design');
#558=PRODUCT_DEFINITION('100197','100197',#561,#557);
#559=PRODUCT_DEFINITION('MAP Rohrende d88,9 L128',
'MAP Rohrende d88,9 L128',#562,#557);
#560=PRODUCT_DEFINITION('33730','33730',#563,#557);
#561=PRODUCT_DEFINITION_FORMATION('',$,#567);
#562=PRODUCT_DEFINITION_FORMATION('',$,#568);
#563=PRODUCT_DEFINITION_FORMATION('',$,#569);
#564=APPLICATION_PROTOCOL_DEFINITION('international standard',
'automotive_design',2009,#565);
#565=APPLICATION_CONTEXT(
'Core Data for Automotive Mechanical Design Process');
#566=PRODUCT_CONTEXT('3D Mechanical Parts',#565,'mechanical');
#567=PRODUCT('100197','100197',$,(#566));
#568=PRODUCT('MAP Rohrende d88,9 L128','MAP Rohrende d88,9 L128',$,(#566));
#569=PRODUCT('33730','33730',$,(#566));
#570=PRESENTATION_STYLE_ASSIGNMENT((#571));
#571=SURFACE_STYLE_USAGE(.BOTH.,#572);
#572=SURFACE_SIDE_STYLE($,(#573));
#573=SURFACE_STYLE_FILL_AREA(#574);
#574=FILL_AREA_STYLE($,(#575));
#575=FILL_AREA_STYLE_COLOUR($,#576);
#576=COLOUR_RGB('',1.,1.,1.);
ENDSEC;
END-ISO-10303-21;
