ISO-10303-21;
HEADER;
/* Generated by software containing ST-Developer
 * from STEP Tools, Inc. (www.steptools.com) 
 */

FILE_DESCRIPTION(
/* description */ (''),
/* implementation_level */ '2;1');

FILE_NAME(
/* name */ 'Z:\\Geberit\\Export\\NewStep\\MAP Passbogen G\\stp\\30404.
stp',
/* time_stamp */ '2014-04-01T19:30:58+02:00',
/* author */ ('bruh'),
/* organization */ (''),
/* preprocessor_version */ 'ST-DEVELOPER v15.2',
/* originating_system */ 'Autodesk Inventor 2014',
/* authorisation */ '');

FILE_SCHEMA (('AUTOMOTIVE_DESIGN { 1 0 10303 214 3 1 1 }'));
ENDSEC;

DATA;
#10=ITEM_DEFINED_TRANSFORMATION($,$,#162,#190);
#11=(
REPRESENTATION_RELATIONSHIP($,$,#306,#307)
REPRESENTATION_RELATIONSHIP_WITH_TRANSFORMATION(#10)
SHAPE_REPRESENTATION_RELATIONSHIP()
);
#12=CONTEXT_DEPENDENT_SHAPE_REPRESENTATION(#11,#305);
#13=NEXT_ASSEMBLY_USAGE_OCCURRENCE('30404:1',$,$,#310,#309,$);
#14=SHAPE_REPRESENTATION_RELATIONSHIP('SRR','None',#306,#15);
#15=ADVANCED_BREP_SHAPE_REPRESENTATION($,(#161),#293);
#16=STYLED_ITEM($,(#318),#161);
#17=PLANE($,#187);
#18=PLANE($,#188);
#19=TOROIDAL_SURFACE($,#178,30.,10.);
#20=TOROIDAL_SURFACE($,#184,30.,11.);
#21=CYLINDRICAL_SURFACE($,#173,11.);
#22=CYLINDRICAL_SURFACE($,#175,10.);
#23=CYLINDRICAL_SURFACE($,#180,10.);
#24=CYLINDRICAL_SURFACE($,#182,11.);
#25=CYLINDRICAL_SURFACE($,#186,11.);
#26=FACE_BOUND($,#53,.T.);
#27=FACE_BOUND($,#55,.T.);
#28=FACE_BOUND($,#57,.T.);
#29=FACE_BOUND($,#59,.T.);
#30=FACE_BOUND($,#61,.T.);
#31=FACE_BOUND($,#63,.T.);
#32=FACE_BOUND($,#65,.T.);
#33=FACE_BOUND($,#67,.T.);
#34=FACE_BOUND($,#69,.T.);
#35=FACE_BOUND($,#71,.T.);
#36=FACE_BOUND($,#73,.T.);
#37=FACE_BOUND($,#75,.T.);
#38=FACE_BOUND($,#76,.T.);
#39=FACE_BOUND($,#77,.T.);
#40=FACE_OUTER_BOUND($,#52,.T.);
#41=FACE_OUTER_BOUND($,#54,.T.);
#42=FACE_OUTER_BOUND($,#56,.T.);
#43=FACE_OUTER_BOUND($,#58,.T.);
#44=FACE_OUTER_BOUND($,#60,.T.);
#45=FACE_OUTER_BOUND($,#62,.T.);
#46=FACE_OUTER_BOUND($,#64,.T.);
#47=FACE_OUTER_BOUND($,#66,.T.);
#48=FACE_OUTER_BOUND($,#68,.T.);
#49=FACE_OUTER_BOUND($,#70,.T.);
#50=FACE_OUTER_BOUND($,#72,.T.);
#51=FACE_OUTER_BOUND($,#74,.T.);
#52=EDGE_LOOP($,(#117));
#53=EDGE_LOOP($,(#118));
#54=EDGE_LOOP($,(#119));
#55=EDGE_LOOP($,(#120));
#56=EDGE_LOOP($,(#121));
#57=EDGE_LOOP($,(#122));
#58=EDGE_LOOP($,(#123));
#59=EDGE_LOOP($,(#124));
#60=EDGE_LOOP($,(#125));
#61=EDGE_LOOP($,(#126));
#62=EDGE_LOOP($,(#127));
#63=EDGE_LOOP($,(#128));
#64=EDGE_LOOP($,(#129));
#65=EDGE_LOOP($,(#130));
#66=EDGE_LOOP($,(#131));
#67=EDGE_LOOP($,(#132));
#68=EDGE_LOOP($,(#133));
#69=EDGE_LOOP($,(#134));
#70=EDGE_LOOP($,(#135));
#71=EDGE_LOOP($,(#136));
#72=EDGE_LOOP($,(#137));
#73=EDGE_LOOP($,(#138));
#74=EDGE_LOOP($,(#139));
#75=EDGE_LOOP($,(#140));
#76=EDGE_LOOP($,(#141));
#77=EDGE_LOOP($,(#142));
#78=CIRCLE($,#164,10.5149774597248);
#79=CIRCLE($,#165,10.5064710065383);
#80=CIRCLE($,#167,11.);
#81=CIRCLE($,#169,11.);
#82=CIRCLE($,#170,10.5);
#83=CIRCLE($,#172,11.);
#84=CIRCLE($,#174,11.);
#85=CIRCLE($,#176,10.);
#86=CIRCLE($,#177,10.);
#87=CIRCLE($,#179,10.);
#88=CIRCLE($,#181,10.);
#89=CIRCLE($,#183,11.);
#90=CIRCLE($,#185,11.);
#91=VERTEX_POINT($,#251);
#92=VERTEX_POINT($,#253);
#93=VERTEX_POINT($,#256);
#94=VERTEX_POINT($,#259);
#95=VERTEX_POINT($,#261);
#96=VERTEX_POINT($,#264);
#97=VERTEX_POINT($,#267);
#98=VERTEX_POINT($,#270);
#99=VERTEX_POINT($,#272);
#100=VERTEX_POINT($,#275);
#101=VERTEX_POINT($,#278);
#102=VERTEX_POINT($,#281);
#103=VERTEX_POINT($,#284);
#104=EDGE_CURVE($,#91,#91,#78,.T.);
#105=EDGE_CURVE($,#92,#92,#79,.T.);
#106=EDGE_CURVE($,#93,#93,#80,.T.);
#107=EDGE_CURVE($,#94,#94,#81,.T.);
#108=EDGE_CURVE($,#95,#95,#82,.T.);
#109=EDGE_CURVE($,#96,#96,#83,.T.);
#110=EDGE_CURVE($,#97,#97,#84,.T.);
#111=EDGE_CURVE($,#98,#98,#85,.T.);
#112=EDGE_CURVE($,#99,#99,#86,.T.);
#113=EDGE_CURVE($,#100,#100,#87,.T.);
#114=EDGE_CURVE($,#101,#101,#88,.T.);
#115=EDGE_CURVE($,#102,#102,#89,.T.);
#116=EDGE_CURVE($,#103,#103,#90,.T.);
#117=ORIENTED_EDGE($,*,*,#104,.F.);
#118=ORIENTED_EDGE($,*,*,#105,.F.);
#119=ORIENTED_EDGE($,*,*,#105,.T.);
#120=ORIENTED_EDGE($,*,*,#106,.F.);
#121=ORIENTED_EDGE($,*,*,#107,.F.);
#122=ORIENTED_EDGE($,*,*,#108,.F.);
#123=ORIENTED_EDGE($,*,*,#108,.T.);
#124=ORIENTED_EDGE($,*,*,#109,.F.);
#125=ORIENTED_EDGE($,*,*,#110,.F.);
#126=ORIENTED_EDGE($,*,*,#109,.T.);
#127=ORIENTED_EDGE($,*,*,#111,.F.);
#128=ORIENTED_EDGE($,*,*,#112,.T.);
#129=ORIENTED_EDGE($,*,*,#112,.F.);
#130=ORIENTED_EDGE($,*,*,#113,.T.);
#131=ORIENTED_EDGE($,*,*,#113,.F.);
#132=ORIENTED_EDGE($,*,*,#114,.F.);
#133=ORIENTED_EDGE($,*,*,#106,.T.);
#134=ORIENTED_EDGE($,*,*,#115,.F.);
#135=ORIENTED_EDGE($,*,*,#115,.T.);
#136=ORIENTED_EDGE($,*,*,#116,.F.);
#137=ORIENTED_EDGE($,*,*,#107,.T.);
#138=ORIENTED_EDGE($,*,*,#116,.T.);
#139=ORIENTED_EDGE($,*,*,#104,.T.);
#140=ORIENTED_EDGE($,*,*,#111,.T.);
#141=ORIENTED_EDGE($,*,*,#114,.T.);
#142=ORIENTED_EDGE($,*,*,#110,.T.);
#143=CONICAL_SURFACE($,#163,10.7532355032691,40.3859950710677);
#144=CONICAL_SURFACE($,#166,10.7532355032691,49.6140049289321);
#145=CONICAL_SURFACE($,#168,10.75,44.9999999999992);
#146=CONICAL_SURFACE($,#171,10.75,44.9999999999999);
#147=ADVANCED_FACE($,(#40,#26),#143,.T.);
#148=ADVANCED_FACE($,(#41,#27),#144,.T.);
#149=ADVANCED_FACE($,(#42,#28),#145,.T.);
#150=ADVANCED_FACE($,(#43,#29),#146,.T.);
#151=ADVANCED_FACE($,(#44,#30),#21,.T.);
#152=ADVANCED_FACE($,(#45,#31),#22,.F.);
#153=ADVANCED_FACE($,(#46,#32),#19,.F.);
#154=ADVANCED_FACE($,(#47,#33),#23,.F.);
#155=ADVANCED_FACE($,(#48,#34),#24,.T.);
#156=ADVANCED_FACE($,(#49,#35),#20,.T.);
#157=ADVANCED_FACE($,(#50,#36),#25,.T.);
#158=ADVANCED_FACE($,(#51,#37),#17,.F.);
#159=ADVANCED_FACE($,(#38,#39),#18,.T.);
#160=CLOSED_SHELL($,(#147,#148,#149,#150,#151,#152,#153,#154,#155,#156,
#157,#158,#159));
#161=MANIFOLD_SOLID_BREP('Volumenk\X\F6rper1',#160);
#162=AXIS2_PLACEMENT_3D('placement',#249,#191,#192);
#163=AXIS2_PLACEMENT_3D($,#250,#193,#194);
#164=AXIS2_PLACEMENT_3D($,#252,#195,#196);
#165=AXIS2_PLACEMENT_3D($,#254,#197,#198);
#166=AXIS2_PLACEMENT_3D($,#255,#199,#200);
#167=AXIS2_PLACEMENT_3D($,#257,#201,#202);
#168=AXIS2_PLACEMENT_3D($,#258,#203,#204);
#169=AXIS2_PLACEMENT_3D($,#260,#205,#206);
#170=AXIS2_PLACEMENT_3D($,#262,#207,#208);
#171=AXIS2_PLACEMENT_3D($,#263,#209,#210);
#172=AXIS2_PLACEMENT_3D($,#265,#211,#212);
#173=AXIS2_PLACEMENT_3D($,#266,#213,#214);
#174=AXIS2_PLACEMENT_3D($,#268,#215,#216);
#175=AXIS2_PLACEMENT_3D($,#269,#217,#218);
#176=AXIS2_PLACEMENT_3D($,#271,#219,#220);
#177=AXIS2_PLACEMENT_3D($,#273,#221,#222);
#178=AXIS2_PLACEMENT_3D($,#274,#223,#224);
#179=AXIS2_PLACEMENT_3D($,#276,#225,#226);
#180=AXIS2_PLACEMENT_3D($,#277,#227,#228);
#181=AXIS2_PLACEMENT_3D($,#279,#229,#230);
#182=AXIS2_PLACEMENT_3D($,#280,#231,#232);
#183=AXIS2_PLACEMENT_3D($,#282,#233,#234);
#184=AXIS2_PLACEMENT_3D($,#283,#235,#236);
#185=AXIS2_PLACEMENT_3D($,#285,#237,#238);
#186=AXIS2_PLACEMENT_3D($,#286,#239,#240);
#187=AXIS2_PLACEMENT_3D($,#287,#241,#242);
#188=AXIS2_PLACEMENT_3D($,#288,#243,#244);
#189=AXIS2_PLACEMENT_3D('placement',#289,#245,#246);
#190=AXIS2_PLACEMENT_3D($,#290,#247,#248);
#191=DIRECTION('axis',(0.,0.,1.));
#192=DIRECTION('refdir',(1.,0.,0.));
#193=DIRECTION('center_axis',(1.,1.31893790222598E-016,0.));
#194=DIRECTION('ref_axis',(0.,1.,0.));
#195=DIRECTION('center_axis',(1.,4.44089209850063E-016,0.));
#196=DIRECTION('ref_axis',(0.,1.,0.));
#197=DIRECTION('center_axis',(-1.,-1.31893790222598E-016,0.));
#198=DIRECTION('ref_axis',(0.,1.,0.));
#199=DIRECTION('center_axis',(-1.,-1.31893790222598E-016,0.));
#200=DIRECTION('ref_axis',(0.,1.,0.));
#201=DIRECTION('center_axis',(-1.,-4.44089209850063E-016,0.));
#202=DIRECTION('ref_axis',(4.44089209850063E-016,-1.,0.));
#203=DIRECTION('center_axis',(0.,1.,0.));
#204=DIRECTION('ref_axis',(-1.,0.,0.));
#205=DIRECTION('center_axis',(-6.19795445328688E-018,1.,0.));
#206=DIRECTION('ref_axis',(1.,6.19795445328688E-018,0.));
#207=DIRECTION('center_axis',(0.,-1.,0.));
#208=DIRECTION('ref_axis',(-1.,0.,0.));
#209=DIRECTION('center_axis',(0.,-1.,0.));
#210=DIRECTION('ref_axis',(-1.,0.,0.));
#211=DIRECTION('center_axis',(6.19795445328688E-018,-1.,0.));
#212=DIRECTION('ref_axis',(1.,6.19795445328688E-018,0.));
#213=DIRECTION('center_axis',(-6.19795445328688E-018,1.,0.));
#214=DIRECTION('ref_axis',(1.,6.19795445328688E-018,0.));
#215=DIRECTION('center_axis',(0.,-1.,0.));
#216=DIRECTION('ref_axis',(1.,0.,0.));
#217=DIRECTION('center_axis',(1.,4.44089209850063E-016,0.));
#218=DIRECTION('ref_axis',(4.44089209850063E-016,-1.,0.));
#219=DIRECTION('center_axis',(-1.,-4.44089209850063E-016,0.));
#220=DIRECTION('ref_axis',(4.44089209850063E-016,-1.,0.));
#221=DIRECTION('center_axis',(-1.,0.,0.));
#222=DIRECTION('ref_axis',(0.,-1.,0.));
#223=DIRECTION('center_axis',(0.,0.,-1.));
#224=DIRECTION('ref_axis',(-1.,0.,0.));
#225=DIRECTION('center_axis',(0.,-1.,0.));
#226=DIRECTION('ref_axis',(1.,0.,0.));
#227=DIRECTION('center_axis',(-6.19795445328688E-018,1.,0.));
#228=DIRECTION('ref_axis',(1.,6.19795445328688E-018,0.));
#229=DIRECTION('center_axis',(0.,1.,0.));
#230=DIRECTION('ref_axis',(1.,6.19795445328688E-018,0.));
#231=DIRECTION('center_axis',(1.,4.44089209850063E-016,0.));
#232=DIRECTION('ref_axis',(4.44089209850063E-016,-1.,0.));
#233=DIRECTION('center_axis',(-1.,0.,0.));
#234=DIRECTION('ref_axis',(0.,-1.,0.));
#235=DIRECTION('center_axis',(0.,0.,-1.));
#236=DIRECTION('ref_axis',(-1.,0.,0.));
#237=DIRECTION('center_axis',(0.,-1.,0.));
#238=DIRECTION('ref_axis',(1.,0.,0.));
#239=DIRECTION('center_axis',(-6.19795445328688E-018,1.,0.));
#240=DIRECTION('ref_axis',(1.,6.19795445328688E-018,0.));
#241=DIRECTION('center_axis',(-1.,-4.44089209850063E-016,0.));
#242=DIRECTION('ref_axis',(0.,0.,1.));
#243=DIRECTION('center_axis',(0.,-1.,0.));
#244=DIRECTION('ref_axis',(0.,0.,-1.));
#245=DIRECTION('axis',(0.,0.,1.));
#246=DIRECTION('refdir',(1.,0.,0.));
#247=DIRECTION($,(0.,0.,1.));
#248=DIRECTION($,(1.,0.,0.));
#249=CARTESIAN_POINT('',(0.,0.,0.));
#250=CARTESIAN_POINT('Origin',(70.2800909360476,120.,0.));
#251=CARTESIAN_POINT('',(70.,109.485022540275,-1.2876708207478E-015));
#252=CARTESIAN_POINT('Origin',(70.,120.,0.));
#253=CARTESIAN_POINT('',(69.99,130.506471006538,0.));
#254=CARTESIAN_POINT('Origin',(69.99,120.,0.));
#255=CARTESIAN_POINT('Origin',(69.7800909360476,120.,0.));
#256=CARTESIAN_POINT('',(69.5701818720952,131.,0.));
#257=CARTESIAN_POINT('Origin',(69.5701818720952,120.,0.));
#258=CARTESIAN_POINT('Origin',(0.,50.25,0.));
#259=CARTESIAN_POINT('',(-11.,50.5,0.));
#260=CARTESIAN_POINT('Origin',(-3.12996699890988E-016,50.5,0.));
#261=CARTESIAN_POINT('',(-10.5,50.,0.));
#262=CARTESIAN_POINT('Origin',(0.,50.,0.));
#263=CARTESIAN_POINT('Origin',(0.,49.75,0.));
#264=CARTESIAN_POINT('',(-11.,49.5,0.));
#265=CARTESIAN_POINT('Origin',(-3.06798745437701E-016,49.5,0.));
#266=CARTESIAN_POINT('Origin',(0.,0.,0.));
#267=CARTESIAN_POINT('',(-11.,0.,1.34711147906209E-015));
#268=CARTESIAN_POINT('Origin',(0.,0.,0.));
#269=CARTESIAN_POINT('Origin',(30.,120.,0.));
#270=CARTESIAN_POINT('',(70.,130.,1.22464679914735E-015));
#271=CARTESIAN_POINT('Origin',(70.,120.,0.));
#272=CARTESIAN_POINT('',(30.,130.,1.22464679914735E-015));
#273=CARTESIAN_POINT('Origin',(30.,120.,0.));
#274=CARTESIAN_POINT('Origin',(30.,90.,0.));
#275=CARTESIAN_POINT('',(-10.,90.,1.22464679914735E-015));
#276=CARTESIAN_POINT('Origin',(-5.5781590079582E-016,90.,0.));
#277=CARTESIAN_POINT('Origin',(0.,0.,0.));
#278=CARTESIAN_POINT('',(-10.,0.,1.22464679914735E-015));
#279=CARTESIAN_POINT('Origin',(0.,0.,0.));
#280=CARTESIAN_POINT('Origin',(30.,120.,0.));
#281=CARTESIAN_POINT('',(30.,131.,1.34711147906209E-015));
#282=CARTESIAN_POINT('Origin',(30.,120.,0.));
#283=CARTESIAN_POINT('Origin',(30.,90.,0.));
#284=CARTESIAN_POINT('',(-11.,90.,1.34711147906209E-015));
#285=CARTESIAN_POINT('Origin',(-5.5781590079582E-016,90.,0.));
#286=CARTESIAN_POINT('Origin',(0.,0.,0.));
#287=CARTESIAN_POINT('Origin',(70.,120.,0.));
#288=CARTESIAN_POINT('Origin',(0.,0.,0.));
#289=CARTESIAN_POINT('',(0.,0.,0.));
#290=CARTESIAN_POINT($,(0.,0.,0.));
#291=UNCERTAINTY_MEASURE_WITH_UNIT(LENGTH_MEASURE(0.01),#295,
'DISTANCE_ACCURACY_VALUE',
'Maximum model space distance between geometric entities at asserted c
onnectivities');
#292=UNCERTAINTY_MEASURE_WITH_UNIT(LENGTH_MEASURE(0.01),#295,
'DISTANCE_ACCURACY_VALUE',
'Maximum model space distance between geometric entities at asserted c
onnectivities');
#293=(
GEOMETRIC_REPRESENTATION_CONTEXT(3)
GLOBAL_UNCERTAINTY_ASSIGNED_CONTEXT((#291))
GLOBAL_UNIT_ASSIGNED_CONTEXT((#295,#298,#296))
REPRESENTATION_CONTEXT('','3D')
);
#294=(
GEOMETRIC_REPRESENTATION_CONTEXT(3)
GLOBAL_UNCERTAINTY_ASSIGNED_CONTEXT((#292))
GLOBAL_UNIT_ASSIGNED_CONTEXT((#295,#298,#296))
REPRESENTATION_CONTEXT('','3D')
);
#295=(
LENGTH_UNIT()
NAMED_UNIT(*)
SI_UNIT(.MILLI.,.METRE.)
);
#296=(
NAMED_UNIT(*)
SI_UNIT($,.STERADIAN.)
SOLID_ANGLE_UNIT()
);
#297=DIMENSIONAL_EXPONENTS(0.,0.,0.,0.,0.,0.,0.);
#298=(
CONVERSION_BASED_UNIT('degree',#300)
NAMED_UNIT(#297)
PLANE_ANGLE_UNIT()
);
#299=(
NAMED_UNIT(*)
PLANE_ANGLE_UNIT()
SI_UNIT($,.RADIAN.)
);
#300=PLANE_ANGLE_MEASURE_WITH_UNIT(PLANE_ANGLE_MEASURE(0.01745329252),#299);
#301=SHAPE_DEFINITION_REPRESENTATION(#303,#306);
#302=SHAPE_DEFINITION_REPRESENTATION(#304,#307);
#303=PRODUCT_DEFINITION_SHAPE('',$,#309);
#304=PRODUCT_DEFINITION_SHAPE('',$,#310);
#305=PRODUCT_DEFINITION_SHAPE($,$,#13);
#306=SHAPE_REPRESENTATION('',(#162),#293);
#307=SHAPE_REPRESENTATION('',(#189,#190),#294);
#308=PRODUCT_DEFINITION_CONTEXT('3D Mechanical Parts',#314,'design');
#309=PRODUCT_DEFINITION('30404','30404',#311,#308);
#310=PRODUCT_DEFINITION('30404','30404',#312,#308);
#311=PRODUCT_DEFINITION_FORMATION('',$,#316);
#312=PRODUCT_DEFINITION_FORMATION('',$,#317);
#313=APPLICATION_PROTOCOL_DEFINITION('international standard',
'automotive_design',2009,#314);
#314=APPLICATION_CONTEXT(
'Core Data for Automotive Mechanical Design Process');
#315=PRODUCT_CONTEXT('3D Mechanical Parts',#314,'mechanical');
#316=PRODUCT('30404','30404',$,(#315));
#317=PRODUCT('30404','30404',$,(#315));
#318=PRESENTATION_STYLE_ASSIGNMENT((#319));
#319=SURFACE_STYLE_USAGE(.BOTH.,#320);
#320=SURFACE_SIDE_STYLE($,(#321));
#321=SURFACE_STYLE_FILL_AREA(#322);
#322=FILL_AREA_STYLE($,(#323));
#323=FILL_AREA_STYLE_COLOUR($,#324);
#324=COLOUR_RGB('',1.,1.,1.);
ENDSEC;
END-ISO-10303-21;
