ISO-10303-21;
HEADER;
/****************************************************************
 * Generated by software with PDE/Lib inside                    *
 * PDElib Version v51a, created Thu 12/14/2006                  *
 * International Technegroup Inc. (www.iti-oh.com)              *
 ****************************************************************/
FILE_DESCRIPTION((''),'2;1');
FILE_NAME('T:\\Arbeitspl\S\dtze\\Aushilfe\\KPeters\\3D\\Steps 08_10\\7030\\70301112X.stp','2010-09-07T08:28:42',('thilbrands'),(''),'Autodesk Inventor 2008','Autodesk Inventor 2008','');
FILE_SCHEMA(('AUTOMOTIVE_DESIGN { 1 0 10303 214 1 1 1 1 }'));
ENDSEC;
DATA;
#5=APPLICATION_CONTEXT('automotive design');
#6=APPLICATION_PROTOCOL_DEFINITION('International Standard','automotive_design',2001,#5);
#7=PRODUCT_CONTEXT('',#5,'mechanical');
#8=PRODUCT('703000251','703000251',$,(#7));
#9=PRODUCT_RELATED_PRODUCT_CATEGORY('part',$,(#8));
#10=PRODUCT_DEFINITION_FORMATION('',$,#8);
#11=PRODUCT_DEFINITION_CONTEXT('part definition',#5,'design');
#12=PRODUCT_DEFINITION('',$,#10,#11);
#18=(NAMED_UNIT(*)PLANE_ANGLE_UNIT()SI_UNIT($,.RADIAN.));
#19=DIMENSIONAL_EXPONENTS(0.0,0.0,0.0,0.0,0.0,0.0,0.0);
#20=PLANE_ANGLE_MEASURE_WITH_UNIT(PLANE_ANGLE_MEASURE(0.017453292500000),#18);
#24=(CONVERSION_BASED_UNIT('DEGREE',#20)NAMED_UNIT(#19)PLANE_ANGLE_UNIT());
#28=(NAMED_UNIT(*)SI_UNIT($,.STERADIAN.)SOLID_ANGLE_UNIT());
#32=(LENGTH_UNIT()NAMED_UNIT(*)SI_UNIT(.MILLI.,.METRE.));
#34=UNCERTAINTY_MEASURE_WITH_UNIT(LENGTH_MEASURE(0.010000000000000),#32,'DISTANCE_ACCURACY_VALUE','');
#36=(GEOMETRIC_REPRESENTATION_CONTEXT(3)GLOBAL_UNCERTAINTY_ASSIGNED_CONTEXT((#34))GLOBAL_UNIT_ASSIGNED_CONTEXT((#24,#28,#32))REPRESENTATION_CONTEXT('None','None'));
#37=AXIS2_PLACEMENT_3D('',#38,#39,#40);
#38=CARTESIAN_POINT('',(0.0,0.0,0.0));
#39=DIRECTION('',(0.0,0.0,1.0));
#40=DIRECTION('',(1.0,0.0,0.0));
#41=SHAPE_REPRESENTATION('',(#37),#36);
#42=PRODUCT_DEFINITION_SHAPE('','',#12);
#43=SHAPE_DEFINITION_REPRESENTATION(#42,#41);
#49=(NAMED_UNIT(*)PLANE_ANGLE_UNIT()SI_UNIT($,.RADIAN.));
#50=DIMENSIONAL_EXPONENTS(0.0,0.0,0.0,0.0,0.0,0.0,0.0);
#51=PLANE_ANGLE_MEASURE_WITH_UNIT(PLANE_ANGLE_MEASURE(0.017453292500000),#49);
#55=(CONVERSION_BASED_UNIT('DEGREE',#51)NAMED_UNIT(#50)PLANE_ANGLE_UNIT());
#59=(NAMED_UNIT(*)SI_UNIT($,.STERADIAN.)SOLID_ANGLE_UNIT());
#63=(LENGTH_UNIT()NAMED_UNIT(*)SI_UNIT(.MILLI.,.METRE.));
#65=UNCERTAINTY_MEASURE_WITH_UNIT(LENGTH_MEASURE(0.000001000000000),#63,'DISTANCE_ACCURACY_VALUE','');
#67=(GEOMETRIC_REPRESENTATION_CONTEXT(3)GLOBAL_UNCERTAINTY_ASSIGNED_CONTEXT((#65))GLOBAL_UNIT_ASSIGNED_CONTEXT((#55,#59,#63))REPRESENTATION_CONTEXT('','3D'));
#68=CARTESIAN_POINT('',(-7.216879396821307,-1.398881E-013,0.0));
#69=DIRECTION('',(1.0,1.672969E-014,0.0));
#70=DIRECTION('',(0.0,0.0,-1.0));
#71=AXIS2_PLACEMENT_3D('',#68,#69,#70);
#72=TOROIDAL_SURFACE('',#71,15.240000000000114,3.810000000000001);
#73=CARTESIAN_POINT('',(-3.769556415594681,16.862363788767787,0.0));
#74=VERTEX_POINT('',#73);
#75=CARTESIAN_POINT('',(-3.769556415594400,-8.171025E-014,0.0));
#76=DIRECTION('',(1.0,0.0,0.0));
#77=DIRECTION('',(0.0,1.0,0.0));
#78=AXIS2_PLACEMENT_3D('',#75,#76,#77);
#79=CIRCLE('',#78,16.862363788767873);
#80=EDGE_CURVE('',#74,#74,#79,.T.);
#81=ORIENTED_EDGE('',*,*,#80,.F.);
#82=EDGE_LOOP('',(#81));
#83=FACE_OUTER_BOUND('',#82,.T.);
#84=CARTESIAN_POINT('',(-7.216879396821562,19.049999999999976,0.0));
#85=VERTEX_POINT('',#84);
#86=CARTESIAN_POINT('',(-7.216879396821243,-1.393829E-013,0.0));
#87=DIRECTION('',(1.0,0.0,0.0));
#88=DIRECTION('',(0.0,1.0,0.0));
#89=AXIS2_PLACEMENT_3D('',#86,#87,#88);
#90=CIRCLE('',#89,19.050000000000114);
#91=EDGE_CURVE('',#85,#85,#90,.T.);
#92=ORIENTED_EDGE('',*,*,#91,.T.);
#93=EDGE_LOOP('',(#92));
#94=FACE_BOUND('',#93,.T.);
#95=ADVANCED_FACE('',(#83,#94),#72,.T.);
#96=CARTESIAN_POINT('',(-39.600000000000001,-2.592116E-014,0.0));
#97=DIRECTION('',(0.0,0.0,1.0));
#98=DIRECTION('',(1.0,0.0,0.0));
#99=AXIS2_PLACEMENT_3D('',#96,#97,#98);
#100=SPHERICAL_SURFACE('',#99,39.600000000000655);
#101=ORIENTED_EDGE('',*,*,#80,.T.);
#102=EDGE_LOOP('',(#101));
#103=FACE_OUTER_BOUND('',#102,.T.);
#104=ADVANCED_FACE('',(#103),#100,.T.);
#105=CARTESIAN_POINT('',(-8.408305152506124,-14.679296516875983,-16.223637887678205));
#106=CARTESIAN_POINT('',(-1.499999999999510,-17.930452321603099,0.0));
#107=CARTESIAN_POINT('',(-8.408305152506124,-14.679296516875983,16.223637887678205));
#108=CARTESIAN_POINT('',(-1.499999999999197,-9.769963E-014,-16.223637887678205));
#109=CARTESIAN_POINT('',(6.938349618301686,-1.136868E-013,0.0));
#110=CARTESIAN_POINT('',(-1.499999999999197,-9.769963E-014,16.223637887678205));
#111=CARTESIAN_POINT('',(-8.408305152506070,14.679296516875819,-16.223637887678205));
#112=CARTESIAN_POINT('',(-1.499999999999442,17.930452321602907,0.0));
#113=CARTESIAN_POINT('',(-8.408305152506070,14.679296516875819,16.223637887678205));
#121=(BOUNDED_SURFACE()B_SPLINE_SURFACE(2,2,((#105,#108,#111),(#106,#109,#112),(#107,#110,#113)),.UNSPECIFIED.,.F.,.F.,.U.)B_SPLINE_SURFACE_WITH_KNOTS((3,3),(3,3),(-0.439864942178591,0.439864942178591),(0.0,0.879729884357197),.UNSPECIFIED.)GEOMETRIC_REPRESENTATION_ITEM()RATIONAL_B_SPLINE_SURFACE(((1.0,0.904809181424376,1.0),(0.904809181424378,0.818679654789851,0.904809181424378),(1.0,0.904809181424376,1.0)))REPRESENTATION_ITEM('')SURFACE());
#122=CARTESIAN_POINT('',(-5.126770187731244,16.223637887678102,0.0));
#123=VERTEX_POINT('',#122);
#124=CARTESIAN_POINT('',(-5.126770187730973,-1.044160E-013,0.0));
#125=DIRECTION('',(1.0,0.0,0.0));
#126=DIRECTION('',(0.0,1.0,0.0));
#127=AXIS2_PLACEMENT_3D('',#124,#125,#126);
#128=CIRCLE('',#127,16.223637887678205);
#129=EDGE_CURVE('',#123,#123,#128,.T.);
#130=ORIENTED_EDGE('',*,*,#129,.F.);
#131=EDGE_LOOP('',(#130));
#132=FACE_OUTER_BOUND('',#131,.T.);
#133=ADVANCED_FACE('',(#132),#121,.T.);
#134=CARTESIAN_POINT('',(-7.216879396821859,-1.420373E-013,17.550000000000122));
#135=CARTESIAN_POINT('',(-4.906879396821299,-1.033917E-013,17.550000000000672));
#136=CARTESIAN_POINT('',(-4.906879396821299,-1.031088E-013,15.240000000000114));
#137=CARTESIAN_POINT('',(-4.906879396821299,-1.028259E-013,12.929999999999556));
#138=CARTESIAN_POINT('',(-7.216879396821858,-1.414715E-013,12.930000000000106));
#139=CARTESIAN_POINT('',(-7.216879396821565,-17.550000000000260,17.550000000000114));
#140=CARTESIAN_POINT('',(-4.906879396821005,-17.550000000000772,17.550000000000665));
#141=CARTESIAN_POINT('',(-4.906879396821045,-15.240000000000213,15.240000000000109));
#142=CARTESIAN_POINT('',(-4.906879396821083,-12.929999999999655,12.929999999999550));
#143=CARTESIAN_POINT('',(-7.216879396821641,-12.930000000000245,12.930000000000099));
#144=CARTESIAN_POINT('',(-7.216879396821565,-17.550000000000260,-2.149184E-015));
#145=CARTESIAN_POINT('',(-4.906879396821005,-17.550000000000772,-2.149184E-015));
#146=CARTESIAN_POINT('',(-4.906879396821045,-15.240000000000215,-1.866300E-015));
#147=CARTESIAN_POINT('',(-4.906879396821083,-12.929999999999657,-1.583416E-015));
#148=CARTESIAN_POINT('',(-7.216879396821641,-12.930000000000247,-1.583416E-015));
#149=CARTESIAN_POINT('',(-7.216879396821565,-17.550000000000253,-17.550000000000122));
#150=CARTESIAN_POINT('',(-4.906879396821005,-17.550000000000765,-17.550000000000672));
#151=CARTESIAN_POINT('',(-4.906879396821045,-15.240000000000210,-15.240000000000110));
#152=CARTESIAN_POINT('',(-4.906879396821083,-12.929999999999652,-12.929999999999554));
#153=CARTESIAN_POINT('',(-7.216879396821641,-12.930000000000240,-12.930000000000105));
#154=CARTESIAN_POINT('',(-7.216879396821859,-1.377389E-013,-17.550000000000122));
#155=CARTESIAN_POINT('',(-4.906879396821299,-9.909334E-014,-17.550000000000672));
#156=CARTESIAN_POINT('',(-4.906879396821299,-9.937623E-014,-15.240000000000114));
#157=CARTESIAN_POINT('',(-4.906879396821299,-9.965911E-014,-12.929999999999556));
#158=CARTESIAN_POINT('',(-7.216879396821858,-1.383047E-013,-12.930000000000106));
#159=CARTESIAN_POINT('',(-7.216879396822153,17.549999999999983,-17.550000000000114));
#160=CARTESIAN_POINT('',(-4.906879396821593,17.550000000000573,-17.550000000000665));
#161=CARTESIAN_POINT('',(-4.906879396821554,15.240000000000011,-15.240000000000109));
#162=CARTESIAN_POINT('',(-4.906879396821516,12.929999999999453,-12.929999999999550));
#163=CARTESIAN_POINT('',(-7.216879396822074,12.929999999999964,-12.930000000000099));
#164=CARTESIAN_POINT('',(-7.216879396822153,17.549999999999983,2.149184E-015));
#165=CARTESIAN_POINT('',(-4.906879396821593,17.550000000000573,2.149184E-015));
#166=CARTESIAN_POINT('',(-4.906879396821554,15.240000000000013,1.866300E-015));
#167=CARTESIAN_POINT('',(-4.906879396821516,12.929999999999453,1.583416E-015));
#168=CARTESIAN_POINT('',(-7.216879396822074,12.929999999999966,1.583416E-015));
#169=CARTESIAN_POINT('',(-7.216879396822153,17.549999999999976,17.550000000000122));
#170=CARTESIAN_POINT('',(-4.906879396821593,17.550000000000566,17.550000000000672));
#171=CARTESIAN_POINT('',(-4.906879396821554,15.240000000000007,15.240000000000110));
#172=CARTESIAN_POINT('',(-4.906879396821516,12.929999999999449,12.929999999999554));
#173=CARTESIAN_POINT('',(-7.216879396822074,12.929999999999962,12.930000000000105));
#174=CARTESIAN_POINT('',(-7.216879396821859,-1.420373E-013,17.550000000000122));
#175=CARTESIAN_POINT('',(-4.906879396821299,-1.033917E-013,17.550000000000672));
#176=CARTESIAN_POINT('',(-4.906879396821299,-1.031088E-013,15.240000000000114));
#177=CARTESIAN_POINT('',(-4.906879396821299,-1.028259E-013,12.929999999999556));
#178=CARTESIAN_POINT('',(-7.216879396821858,-1.414715E-013,12.930000000000106));
#186=(BOUNDED_SURFACE()B_SPLINE_SURFACE(2,2,((#134,#139,#144,#149,#154,#159,#164,#169,#174),(#135,#140,#145,#150,#155,#160,#165,#170,#175),(#136,#141,#146,#151,#156,#161,#166,#171,#176),(#137,#142,#147,#152,#157,#162,#167,#172,#177),(#138,#143,#148,#153,#158,#163,#168,#173,#178)),.UNSPECIFIED.,.F.,.T.,.U.)B_SPLINE_SURFACE_WITH_KNOTS((3,2,3),(3,2,2,2,3),(-2.386051E-013,1.570796326794897,3.141592653590032),(0.0,1.570796326794897,3.141592653589793,4.712388980384690,6.283185307179586),.UNSPECIFIED.)GEOMETRIC_REPRESENTATION_ITEM()RATIONAL_B_SPLINE_SURFACE(((1.0,0.707106781186548,1.0,0.707106781186548,1.0,0.707106781186548,1.0,0.707106781186548,1.0),(0.707106781186463,0.499999999999940,0.707106781186463,0.499999999999940,0.707106781186463,0.499999999999940,0.707106781186463,0.499999999999940,0.707106781186463),(1.0,0.707106781186548,1.0,0.707106781186548,1.0,0.707106781186548,1.0,0.707106781186548,1.0),(0.707106781186464,0.499999999999941,0.707106781186464,0.499999999999941,0.707106781186464,0.499999999999941,0.707106781186464,0.499999999999941,0.707106781186464),(1.0,0.707106781186548,1.0,0.707106781186548,1.0,0.707106781186548,1.0,0.707106781186548,1.0)))REPRESENTATION_ITEM('')SURFACE());
#187=CARTESIAN_POINT('',(-7.216879396821563,17.549999999999983,0.0));
#188=VERTEX_POINT('',#187);
#189=CARTESIAN_POINT('',(-7.216879396821270,-1.393829E-013,0.0));
#190=DIRECTION('',(1.0,0.0,0.0));
#191=DIRECTION('',(0.0,1.0,0.0));
#192=AXIS2_PLACEMENT_3D('',#189,#190,#191);
#193=CIRCLE('',#192,17.550000000000125);
#194=EDGE_CURVE('',#188,#188,#193,.T.);
#195=ORIENTED_EDGE('',*,*,#194,.F.);
#196=EDGE_LOOP('',(#195));
#197=FACE_OUTER_BOUND('',#196,.T.);
#198=ORIENTED_EDGE('',*,*,#129,.T.);
#199=EDGE_LOOP('',(#198));
#200=FACE_BOUND('',#199,.T.);
#201=ADVANCED_FACE('',(#197,#200),#186,.T.);
#202=CARTESIAN_POINT('',(-10.608439698410489,-1.961226E-013,0.0));
#203=DIRECTION('',(1.0,1.672969E-014,0.0));
#204=DIRECTION('',(0.0,1.0,0.0));
#205=AXIS2_PLACEMENT_3D('',#202,#203,#204);
#206=CYLINDRICAL_SURFACE('',#205,17.550000000000182);
#207=CARTESIAN_POINT('',(-14.000000000000002,17.549999999999986,0.0));
#208=VERTEX_POINT('',#207);
#209=CARTESIAN_POINT('',(-13.999999999999709,-2.528624E-013,0.0));
#210=DIRECTION('',(1.0,0.0,0.0));
#211=DIRECTION('',(0.0,1.0,0.0));
#212=AXIS2_PLACEMENT_3D('',#209,#210,#211);
#213=CIRCLE('',#212,17.550000000000239);
#214=EDGE_CURVE('',#208,#208,#213,.T.);
#215=ORIENTED_EDGE('',*,*,#214,.F.);
#216=EDGE_LOOP('',(#215));
#217=FACE_OUTER_BOUND('',#216,.T.);
#218=ORIENTED_EDGE('',*,*,#194,.T.);
#219=EDGE_LOOP('',(#218));
#220=FACE_BOUND('',#219,.T.);
#221=ADVANCED_FACE('',(#217,#220),#206,.F.);
#222=CARTESIAN_POINT('',(-14.000000000000002,18.299999999999979,0.0));
#223=DIRECTION('',(-1.0,0.0,0.0));
#224=DIRECTION('',(0.0,0.0,1.0));
#225=AXIS2_PLACEMENT_3D('',#222,#223,#224);
#226=PLANE('',#225);
#227=CARTESIAN_POINT('',(-14.000000000000002,19.049999999999976,0.0));
#228=VERTEX_POINT('',#227);
#229=CARTESIAN_POINT('',(-13.999999999999682,-2.528624E-013,0.0));
#230=DIRECTION('',(1.0,0.0,0.0));
#231=DIRECTION('',(0.0,1.0,0.0));
#232=AXIS2_PLACEMENT_3D('',#229,#230,#231);
#233=CIRCLE('',#232,19.050000000000228);
#234=EDGE_CURVE('',#228,#228,#233,.T.);
#235=ORIENTED_EDGE('',*,*,#234,.F.);
#236=EDGE_LOOP('',(#235));
#237=FACE_OUTER_BOUND('',#236,.T.);
#238=ORIENTED_EDGE('',*,*,#214,.T.);
#239=EDGE_LOOP('',(#238));
#240=FACE_BOUND('',#239,.T.);
#241=ADVANCED_FACE('',(#237,#240),#226,.T.);
#242=CARTESIAN_POINT('',(-10.608439698410464,-1.961226E-013,0.0));
#243=DIRECTION('',(1.0,1.672969E-014,0.0));
#244=DIRECTION('',(0.0,1.0,0.0));
#245=AXIS2_PLACEMENT_3D('',#242,#243,#244);
#246=CYLINDRICAL_SURFACE('',#245,19.050000000000171);
#247=ORIENTED_EDGE('',*,*,#91,.F.);
#248=EDGE_LOOP('',(#247));
#249=FACE_OUTER_BOUND('',#248,.T.);
#250=ORIENTED_EDGE('',*,*,#234,.T.);
#251=EDGE_LOOP('',(#250));
#252=FACE_BOUND('',#251,.T.);
#253=ADVANCED_FACE('',(#249,#252),#246,.T.);
#254=CLOSED_SHELL('',(#95,#104,#133,#201,#221,#241,#253));
#255=MANIFOLD_SOLID_BREP('',#254);
#256=COLOUR_RGB('Metall - Stahl',0.639216005802155,0.639216005802155,0.686275005340576);
#257=FILL_AREA_STYLE_COLOUR('Metall - Stahl',#256);
#258=FILL_AREA_STYLE('Metall - Stahl',(#257));
#259=SURFACE_STYLE_FILL_AREA(#258);
#260=SURFACE_SIDE_STYLE('Metall - Stahl',(#259));
#261=SURFACE_STYLE_USAGE(.BOTH.,#260);
#262=PRESENTATION_STYLE_ASSIGNMENT((#261));
#263=STYLED_ITEM('',(#262),#255);
#264=MECHANICAL_DESIGN_GEOMETRIC_PRESENTATION_REPRESENTATION('',(#263),#36);
#265=ADVANCED_BREP_SHAPE_REPRESENTATION('ABSR',(#255),#36);
#266=SHAPE_REPRESENTATION_RELATIONSHIP('SRR','None',#265,#41);
ENDSEC;
END-ISO-10303-21;
