ISO-10303-21;
HEADER;
/****************************************************************
 * Generated by software with PDE/Lib inside                    *
 * PDElib Version v51a, created Thu 12/14/2006                  *
 * International Technegroup Inc. (www.iti-oh.com)              *
 ****************************************************************/
FILE_DESCRIPTION((''),'2;1');
FILE_NAME('T:\\Arbeitspl\S\dtze\\Aushilfe\\KPeters\\3D\\Steps 08_10\\10196\\10196034X000.stp','2010-09-03T11:21:42',('thilbrands'),(''),'Autodesk Inventor 2008','Autodesk Inventor 2008','');
FILE_SCHEMA(('AUTOMOTIVE_DESIGN { 1 0 10303 214 1 1 1 1 }'));
ENDSEC;
DATA;
#5=APPLICATION_CONTEXT('automotive design');
#6=APPLICATION_PROTOCOL_DEFINITION('International Standard','automotive_design',2001,#5);
#7=PRODUCT_CONTEXT('',#5,'mechanical');
#8=PRODUCT('10196012X000','10196012X000',$,(#7));
#9=PRODUCT_RELATED_PRODUCT_CATEGORY('part',$,(#8));
#10=PRODUCT_DEFINITION_FORMATION('',$,#8);
#11=PRODUCT_DEFINITION_CONTEXT('part definition',#5,'design');
#12=PRODUCT_DEFINITION('',$,#10,#11);
#18=(NAMED_UNIT(*)PLANE_ANGLE_UNIT()SI_UNIT($,.RADIAN.));
#19=DIMENSIONAL_EXPONENTS(0.0,0.0,0.0,0.0,0.0,0.0,0.0);
#20=PLANE_ANGLE_MEASURE_WITH_UNIT(PLANE_ANGLE_MEASURE(0.017453292500000),#18);
#24=(CONVERSION_BASED_UNIT('DEGREE',#20)NAMED_UNIT(#19)PLANE_ANGLE_UNIT());
#28=(NAMED_UNIT(*)SI_UNIT($,.STERADIAN.)SOLID_ANGLE_UNIT());
#32=(LENGTH_UNIT()NAMED_UNIT(*)SI_UNIT(.MILLI.,.METRE.));
#34=UNCERTAINTY_MEASURE_WITH_UNIT(LENGTH_MEASURE(0.010000000000000),#32,'DISTANCE_ACCURACY_VALUE','');
#36=(GEOMETRIC_REPRESENTATION_CONTEXT(3)GLOBAL_UNCERTAINTY_ASSIGNED_CONTEXT((#34))GLOBAL_UNIT_ASSIGNED_CONTEXT((#24,#28,#32))REPRESENTATION_CONTEXT('None','None'));
#37=AXIS2_PLACEMENT_3D('',#38,#39,#40);
#38=CARTESIAN_POINT('',(0.0,0.0,0.0));
#39=DIRECTION('',(0.0,0.0,1.0));
#40=DIRECTION('',(1.0,0.0,0.0));
#41=SHAPE_REPRESENTATION('',(#37),#36);
#42=PRODUCT_DEFINITION_SHAPE('','',#12);
#43=SHAPE_DEFINITION_REPRESENTATION(#42,#41);
#49=(NAMED_UNIT(*)PLANE_ANGLE_UNIT()SI_UNIT($,.RADIAN.));
#50=DIMENSIONAL_EXPONENTS(0.0,0.0,0.0,0.0,0.0,0.0,0.0);
#51=PLANE_ANGLE_MEASURE_WITH_UNIT(PLANE_ANGLE_MEASURE(0.017453292500000),#49);
#55=(CONVERSION_BASED_UNIT('DEGREE',#51)NAMED_UNIT(#50)PLANE_ANGLE_UNIT());
#59=(NAMED_UNIT(*)SI_UNIT($,.STERADIAN.)SOLID_ANGLE_UNIT());
#63=(LENGTH_UNIT()NAMED_UNIT(*)SI_UNIT(.MILLI.,.METRE.));
#65=UNCERTAINTY_MEASURE_WITH_UNIT(LENGTH_MEASURE(0.000001000000000),#63,'DISTANCE_ACCURACY_VALUE','');
#67=(GEOMETRIC_REPRESENTATION_CONTEXT(3)GLOBAL_UNCERTAINTY_ASSIGNED_CONTEXT((#65))GLOBAL_UNIT_ASSIGNED_CONTEXT((#55,#59,#63))REPRESENTATION_CONTEXT('','3D'));
#68=CARTESIAN_POINT('',(-8.000000000000004,-2.220446E-015,0.0));
#69=DIRECTION('',(1.0,1.930823E-016,0.0));
#70=DIRECTION('',(0.0,0.0,-1.0));
#71=AXIS2_PLACEMENT_3D('',#68,#69,#70);
#72=TOROIDAL_SURFACE('',#71,16.200000000000006,0.800000000000000);
#73=CARTESIAN_POINT('',(-7.248245903371281,16.473616114660537,0.0));
#74=VERTEX_POINT('',#73);
#75=CARTESIAN_POINT('',(-7.248245903371277,-1.399508E-015,0.0));
#76=DIRECTION('',(1.0,0.0,0.0));
#77=DIRECTION('',(0.0,1.0,0.0));
#78=AXIS2_PLACEMENT_3D('',#75,#76,#77);
#79=CIRCLE('',#78,16.473616114660540);
#80=EDGE_CURVE('',#74,#74,#79,.T.);
#81=ORIENTED_EDGE('',*,*,#80,.F.);
#82=EDGE_LOOP('',(#81));
#83=FACE_OUTER_BOUND('',#82,.T.);
#84=CARTESIAN_POINT('',(-8.000000000000007,17.0,0.0));
#85=VERTEX_POINT('',#84);
#86=CARTESIAN_POINT('',(-8.000000000000004,-1.544658E-015,0.0));
#87=DIRECTION('',(1.0,0.0,0.0));
#88=DIRECTION('',(0.0,1.0,0.0));
#89=AXIS2_PLACEMENT_3D('',#86,#87,#88);
#90=CIRCLE('',#89,17.0);
#91=EDGE_CURVE('',#85,#85,#90,.T.);
#92=ORIENTED_EDGE('',*,*,#91,.T.);
#93=EDGE_LOOP('',(#92));
#94=FACE_BOUND('',#93,.T.);
#95=ADVANCED_FACE('',(#83,#94),#72,.T.);
#96=CARTESIAN_POINT('',(-6.764591991879001,-1.306123E-015,0.0));
#97=DIRECTION('',(-1.0,-1.930823E-016,0.0));
#98=DIRECTION('',(0.0,1.0,0.0));
#99=AXIS2_PLACEMENT_3D('',#96,#97,#98);
#100=CONICAL_SURFACE('',#99,15.144787914004601,70.000000000000043);
#101=CARTESIAN_POINT('',(-6.280938080386724,13.815959713348658,0.0));
#102=VERTEX_POINT('',#101);
#103=CARTESIAN_POINT('',(-6.280938080386722,-1.212738E-015,0.0));
#104=DIRECTION('',(1.0,0.0,0.0));
#105=DIRECTION('',(0.0,1.0,0.0));
#106=AXIS2_PLACEMENT_3D('',#103,#104,#105);
#107=CIRCLE('',#106,13.815959713348660);
#108=EDGE_CURVE('',#102,#102,#107,.T.);
#109=ORIENTED_EDGE('',*,*,#108,.F.);
#110=EDGE_LOOP('',(#109));
#111=FACE_OUTER_BOUND('',#110,.T.);
#112=ORIENTED_EDGE('',*,*,#80,.T.);
#113=EDGE_LOOP('',(#112));
#114=FACE_BOUND('',#113,.T.);
#115=ADVANCED_FACE('',(#111,#114),#100,.T.);
#116=CARTESIAN_POINT('',(-4.401552838814900,-1.530758E-015,12.499999999999989));
#117=CARTESIAN_POINT('',(-6.401552838814911,-1.916922E-015,12.499999999999988));
#118=CARTESIAN_POINT('',(-6.401552838814910,-2.161844E-015,14.499999999999996));
#119=CARTESIAN_POINT('',(-6.401552838814910,-2.406765E-015,16.500000000000007));
#120=CARTESIAN_POINT('',(-4.401552838814900,-2.020600E-015,16.500000000000004));
#121=CARTESIAN_POINT('',(-4.401552838814897,-12.499999999999988,12.499999999999984));
#122=CARTESIAN_POINT('',(-6.401552838814907,-12.499999999999986,12.499999999999982));
#123=CARTESIAN_POINT('',(-6.401552838814907,-14.499999999999995,14.499999999999991));
#124=CARTESIAN_POINT('',(-6.401552838814906,-16.500000000000007,16.500000000000000));
#125=CARTESIAN_POINT('',(-4.401552838814896,-16.500000000000004,16.499999999999996));
#126=CARTESIAN_POINT('',(-4.401552838814897,-12.499999999999989,-1.530758E-015));
#127=CARTESIAN_POINT('',(-6.401552838814906,-12.499999999999988,-1.530758E-015));
#128=CARTESIAN_POINT('',(-6.401552838814907,-14.499999999999996,-1.775679E-015));
#129=CARTESIAN_POINT('',(-6.401552838814906,-16.500000000000007,-2.020600E-015));
#130=CARTESIAN_POINT('',(-4.401552838814896,-16.500000000000004,-2.020600E-015));
#131=CARTESIAN_POINT('',(-4.401552838814897,-12.499999999999984,-12.499999999999988));
#132=CARTESIAN_POINT('',(-6.401552838814907,-12.499999999999982,-12.499999999999986));
#133=CARTESIAN_POINT('',(-6.401552838814907,-14.499999999999991,-14.499999999999995));
#134=CARTESIAN_POINT('',(-6.401552838814906,-16.500000000000000,-16.500000000000007));
#135=CARTESIAN_POINT('',(-4.401552838814896,-16.499999999999996,-16.500000000000004));
#136=CARTESIAN_POINT('',(-4.401552838814900,1.530758E-015,-12.499999999999989));
#137=CARTESIAN_POINT('',(-6.401552838814911,1.144593E-015,-12.499999999999988));
#138=CARTESIAN_POINT('',(-6.401552838814910,1.389515E-015,-14.499999999999996));
#139=CARTESIAN_POINT('',(-6.401552838814910,1.634436E-015,-16.500000000000007));
#140=CARTESIAN_POINT('',(-4.401552838814900,2.020600E-015,-16.500000000000004));
#141=CARTESIAN_POINT('',(-4.401552838814903,12.499999999999988,-12.499999999999984));
#142=CARTESIAN_POINT('',(-6.401552838814912,12.499999999999986,-12.499999999999982));
#143=CARTESIAN_POINT('',(-6.401552838814911,14.499999999999995,-14.499999999999991));
#144=CARTESIAN_POINT('',(-6.401552838814913,16.500000000000007,-16.500000000000000));
#145=CARTESIAN_POINT('',(-4.401552838814903,16.500000000000004,-16.499999999999996));
#146=CARTESIAN_POINT('',(-4.401552838814903,12.499999999999989,1.530758E-015));
#147=CARTESIAN_POINT('',(-6.401552838814913,12.499999999999988,1.530758E-015));
#148=CARTESIAN_POINT('',(-6.401552838814912,14.499999999999996,1.775679E-015));
#149=CARTESIAN_POINT('',(-6.401552838814913,16.500000000000007,2.020600E-015));
#150=CARTESIAN_POINT('',(-4.401552838814903,16.500000000000004,2.020600E-015));
#151=CARTESIAN_POINT('',(-4.401552838814903,12.499999999999984,12.499999999999988));
#152=CARTESIAN_POINT('',(-6.401552838814912,12.499999999999982,12.499999999999986));
#153=CARTESIAN_POINT('',(-6.401552838814911,14.499999999999991,14.499999999999995));
#154=CARTESIAN_POINT('',(-6.401552838814913,16.500000000000000,16.500000000000007));
#155=CARTESIAN_POINT('',(-4.401552838814903,16.499999999999996,16.500000000000004));
#156=CARTESIAN_POINT('',(-4.401552838814900,-1.530758E-015,12.499999999999989));
#157=CARTESIAN_POINT('',(-6.401552838814911,-1.916922E-015,12.499999999999988));
#158=CARTESIAN_POINT('',(-6.401552838814910,-2.161844E-015,14.499999999999996));
#159=CARTESIAN_POINT('',(-6.401552838814910,-2.406765E-015,16.500000000000007));
#160=CARTESIAN_POINT('',(-4.401552838814900,-2.020600E-015,16.500000000000004));
#168=(BOUNDED_SURFACE()B_SPLINE_SURFACE(2,2,((#116,#121,#126,#131,#136,#141,#146,#151,#156),(#117,#122,#127,#132,#137,#142,#147,#152,#157),(#118,#123,#128,#133,#138,#143,#148,#153,#158),(#119,#124,#129,#134,#139,#144,#149,#154,#159),(#120,#125,#130,#135,#140,#145,#150,#155,#160)),.UNSPECIFIED.,.F.,.T.,.U.)B_SPLINE_SURFACE_WITH_KNOTS((3,2,3),(3,2,2,2,3),(-3.141592653589794,-1.570796326794897,1.333808E-015),(0.0,1.570796326794897,3.141592653589793,4.712388980384690,6.283185307179586),.UNSPECIFIED.)GEOMETRIC_REPRESENTATION_ITEM()RATIONAL_B_SPLINE_SURFACE(((1.0,0.707106781186548,1.0,0.707106781186548,1.0,0.707106781186548,1.0,0.707106781186548,1.0),(0.707106781186548,0.500000000000000,0.707106781186548,0.500000000000000,0.707106781186548,0.500000000000000,0.707106781186548,0.500000000000000,0.707106781186548),(1.0,0.707106781186548,1.0,0.707106781186548,1.0,0.707106781186548,1.0,0.707106781186548,1.0),(0.707106781186547,0.500000000000000,0.707106781186547,0.500000000000000,0.707106781186547,0.500000000000000,0.707106781186547,0.500000000000000,0.707106781186547),(1.0,0.707106781186548,1.0,0.707106781186548,1.0,0.707106781186548,1.0,0.707106781186548,1.0)))REPRESENTATION_ITEM('')SURFACE());
#169=CARTESIAN_POINT('',(-4.401552838814906,12.500000000000000,0.0));
#170=VERTEX_POINT('',#169);
#171=CARTESIAN_POINT('',(-4.401552838814904,-8.498618E-016,0.0));
#172=DIRECTION('',(1.0,0.0,0.0));
#173=DIRECTION('',(0.0,1.0,0.0));
#174=AXIS2_PLACEMENT_3D('',#171,#172,#173);
#175=CIRCLE('',#174,12.500000000000000);
#176=EDGE_CURVE('',#170,#170,#175,.T.);
#177=ORIENTED_EDGE('',*,*,#176,.F.);
#178=EDGE_LOOP('',(#177));
#179=FACE_OUTER_BOUND('',#178,.T.);
#180=ORIENTED_EDGE('',*,*,#108,.T.);
#181=EDGE_LOOP('',(#180));
#182=FACE_BOUND('',#181,.T.);
#183=ADVANCED_FACE('',(#179,#182),#168,.T.);
#184=CARTESIAN_POINT('',(-2.200776419407452,-4.249309E-016,0.0));
#185=DIRECTION('',(1.0,1.930823E-016,0.0));
#186=DIRECTION('',(0.0,1.0,0.0));
#187=AXIS2_PLACEMENT_3D('',#184,#185,#186);
#188=CYLINDRICAL_SURFACE('',#187,12.500000000000000);
#189=CARTESIAN_POINT('',(-2.220446E-015,12.500000000000000,0.0));
#190=VERTEX_POINT('',#189);
#191=CARTESIAN_POINT('',(0.0,0.0,0.0));
#192=DIRECTION('',(1.0,0.0,0.0));
#193=DIRECTION('',(0.0,1.0,0.0));
#194=AXIS2_PLACEMENT_3D('',#191,#192,#193);
#195=CIRCLE('',#194,12.500000000000000);
#196=EDGE_CURVE('',#190,#190,#195,.T.);
#197=ORIENTED_EDGE('',*,*,#196,.F.);
#198=EDGE_LOOP('',(#197));
#199=FACE_OUTER_BOUND('',#198,.T.);
#200=ORIENTED_EDGE('',*,*,#176,.T.);
#201=EDGE_LOOP('',(#200));
#202=FACE_BOUND('',#201,.T.);
#203=ADVANCED_FACE('',(#199,#202),#188,.T.);
#204=CARTESIAN_POINT('',(-1.110223E-015,6.250000000000000,0.0));
#205=DIRECTION('',(1.0,0.0,0.0));
#206=DIRECTION('',(0.0,0.0,-1.0));
#207=AXIS2_PLACEMENT_3D('',#204,#205,#206);
#208=PLANE('',#207);
#209=ORIENTED_EDGE('',*,*,#196,.T.);
#210=EDGE_LOOP('',(#209));
#211=FACE_OUTER_BOUND('',#210,.T.);
#212=ADVANCED_FACE('',(#211),#208,.T.);
#213=CARTESIAN_POINT('',(-10.488999999999997,4.385326153028453,0.0));
#214=DIRECTION('',(-1.0,0.0,0.0));
#215=DIRECTION('',(0.0,0.0,1.0));
#216=AXIS2_PLACEMENT_3D('',#213,#214,#215);
#217=PLANE('',#216);
#218=CARTESIAN_POINT('',(-10.488999999999997,8.770652306056908,0.0));
#219=VERTEX_POINT('',#218);
#220=CARTESIAN_POINT('',(-10.488999999999995,-2.025240E-015,0.0));
#221=DIRECTION('',(1.0,0.0,0.0));
#222=DIRECTION('',(0.0,1.0,0.0));
#223=AXIS2_PLACEMENT_3D('',#220,#221,#222);
#224=CIRCLE('',#223,8.770652306056910);
#225=EDGE_CURVE('',#219,#219,#224,.T.);
#226=ORIENTED_EDGE('',*,*,#225,.F.);
#227=EDGE_LOOP('',(#226));
#228=FACE_OUTER_BOUND('',#227,.T.);
#229=ADVANCED_FACE('',(#228),#217,.T.);
#230=CARTESIAN_POINT('',(-9.989000000000035,-2.220446E-015,0.0));
#231=DIRECTION('',(1.0,1.930823E-016,0.0));
#232=DIRECTION('',(0.0,0.0,-1.0));
#233=AXIS2_PLACEMENT_3D('',#230,#231,#232);
#234=TOROIDAL_SURFACE('',#233,8.770652306056912,0.499999999999963);
#235=CARTESIAN_POINT('',(-10.329909090909100,9.136413145589406,0.0));
#236=VERTEX_POINT('',#235);
#237=CARTESIAN_POINT('',(-10.329909090909098,-1.994522E-015,0.0));
#238=DIRECTION('',(1.0,0.0,0.0));
#239=DIRECTION('',(0.0,1.0,0.0));
#240=AXIS2_PLACEMENT_3D('',#237,#238,#239);
#241=CIRCLE('',#240,9.136413145589408);
#242=EDGE_CURVE('',#236,#236,#241,.T.);
#243=ORIENTED_EDGE('',*,*,#242,.F.);
#244=EDGE_LOOP('',(#243));
#245=FACE_OUTER_BOUND('',#244,.T.);
#246=ORIENTED_EDGE('',*,*,#225,.T.);
#247=EDGE_LOOP('',(#246));
#248=FACE_BOUND('',#247,.T.);
#249=ADVANCED_FACE('',(#245,#248),#234,.T.);
#250=CARTESIAN_POINT('',(-10.329909090909101,-3.420078E-015,11.623586854410597));
#251=CARTESIAN_POINT('',(-9.788999999999998,-3.253899E-015,11.119430021541440));
#252=CARTESIAN_POINT('',(-9.788999999999998,-3.163348E-015,10.380000000000001));
#253=CARTESIAN_POINT('',(-9.788999999999998,-3.072797E-015,9.640569978458562));
#254=CARTESIAN_POINT('',(-10.329909090909101,-3.115497E-015,9.136413145589405));
#255=CARTESIAN_POINT('',(-10.329909090909100,-11.623586854410599,11.623586854410593));
#256=CARTESIAN_POINT('',(-9.788999999999996,-11.119430021541442,11.119430021541437));
#257=CARTESIAN_POINT('',(-9.788999999999996,-10.380000000000003,10.379999999999997));
#258=CARTESIAN_POINT('',(-9.788999999999996,-9.640569978458563,9.640569978458558));
#259=CARTESIAN_POINT('',(-10.329909090909100,-9.136413145589406,9.136413145589401));
#260=CARTESIAN_POINT('',(-10.329909090909100,-11.623586854410599,-1.423432E-015));
#261=CARTESIAN_POINT('',(-9.788999999999996,-11.119430021541442,-1.361692E-015));
#262=CARTESIAN_POINT('',(-9.788999999999996,-10.380000000000003,-1.271141E-015));
#263=CARTESIAN_POINT('',(-9.788999999999996,-9.640569978458563,-1.180590E-015));
#264=CARTESIAN_POINT('',(-10.329909090909100,-9.136413145589406,-1.118851E-015));
#265=CARTESIAN_POINT('',(-10.329909090909100,-11.623586854410593,-11.623586854410597));
#266=CARTESIAN_POINT('',(-9.788999999999996,-11.119430021541438,-11.119430021541440));
#267=CARTESIAN_POINT('',(-9.788999999999996,-10.379999999999999,-10.380000000000001));
#268=CARTESIAN_POINT('',(-9.788999999999996,-9.640569978458560,-9.640569978458562));
#269=CARTESIAN_POINT('',(-10.329909090909100,-9.136413145589403,-9.136413145589405));
#270=CARTESIAN_POINT('',(-10.329909090909101,-5.732143E-016,-11.623586854410597));
#271=CARTESIAN_POINT('',(-9.788999999999998,-5.305137E-016,-11.119430021541440));
#272=CARTESIAN_POINT('',(-9.788999999999998,-6.210648E-016,-10.380000000000001));
#273=CARTESIAN_POINT('',(-9.788999999999998,-7.116159E-016,-9.640569978458562));
#274=CARTESIAN_POINT('',(-10.329909090909101,-8.777952E-016,-9.136413145589405));
#275=CARTESIAN_POINT('',(-10.329909090909103,11.623586854410593,-11.623586854410593));
#276=CARTESIAN_POINT('',(-9.789000000000000,11.119430021541438,-11.119430021541437));
#277=CARTESIAN_POINT('',(-9.789000000000000,10.379999999999999,-10.379999999999997));
#278=CARTESIAN_POINT('',(-9.789000000000000,9.640569978458560,-9.640569978458558));
#279=CARTESIAN_POINT('',(-10.329909090909103,9.136413145589403,-9.136413145589401));
#280=CARTESIAN_POINT('',(-10.329909090909103,11.623586854410595,1.423432E-015));
#281=CARTESIAN_POINT('',(-9.789000000000000,11.119430021541438,1.361692E-015));
#282=CARTESIAN_POINT('',(-9.789000000000000,10.379999999999999,1.271141E-015));
#283=CARTESIAN_POINT('',(-9.789000000000000,9.640569978458560,1.180590E-015));
#284=CARTESIAN_POINT('',(-10.329909090909103,9.136413145589403,1.118851E-015));
#285=CARTESIAN_POINT('',(-10.329909090909103,11.623586854410592,11.623586854410597));
#286=CARTESIAN_POINT('',(-9.789000000000000,11.119430021541435,11.119430021541440));
#287=CARTESIAN_POINT('',(-9.789000000000000,10.379999999999995,10.380000000000001));
#288=CARTESIAN_POINT('',(-9.789000000000000,9.640569978458556,9.640569978458562));
#289=CARTESIAN_POINT('',(-10.329909090909103,9.136413145589399,9.136413145589405));
#290=CARTESIAN_POINT('',(-10.329909090909101,-3.420078E-015,11.623586854410597));
#291=CARTESIAN_POINT('',(-9.788999999999998,-3.253899E-015,11.119430021541440));
#292=CARTESIAN_POINT('',(-9.788999999999998,-3.163348E-015,10.380000000000001));
#293=CARTESIAN_POINT('',(-9.788999999999998,-3.072797E-015,9.640569978458562));
#294=CARTESIAN_POINT('',(-10.329909090909101,-3.115497E-015,9.136413145589405));
#302=(BOUNDED_SURFACE()B_SPLINE_SURFACE(2,2,((#250,#255,#260,#265,#270,#275,#280,#285,#290),(#251,#256,#261,#266,#271,#276,#281,#286,#291),(#252,#257,#262,#267,#272,#277,#282,#287,#292),(#253,#258,#263,#268,#273,#278,#283,#288,#293),(#254,#259,#264,#269,#274,#279,#284,#289,#294)),.UNSPECIFIED.,.F.,.T.,.U.)B_SPLINE_SURFACE_WITH_KNOTS((3,2,3),(3,2,2,2,3),(0.750245243986511,1.570796326794897,2.391347409603283),(0.0,1.570796326794897,3.141592653589793,4.712388980384690,6.283185307179586),.UNSPECIFIED.)GEOMETRIC_REPRESENTATION_ITEM()RATIONAL_B_SPLINE_SURFACE(((1.0,0.707106781186548,1.0,0.707106781186548,1.0,0.707106781186548,1.0,0.707106781186548,1.0),(0.917010954628712,0.648424664440312,0.917010954628712,0.648424664440312,0.917010954628712,0.648424664440312,0.917010954628712,0.648424664440312,0.917010954628712),(1.0,0.707106781186548,1.0,0.707106781186548,1.0,0.707106781186548,1.0,0.707106781186548,1.0),(0.917010954628733,0.648424664440326,0.917010954628733,0.648424664440326,0.917010954628733,0.648424664440326,0.917010954628733,0.648424664440326,0.917010954628733),(1.0,0.707106781186548,1.0,0.707106781186548,1.0,0.707106781186548,1.0,0.707106781186548,1.0)))REPRESENTATION_ITEM('')SURFACE());
#303=CARTESIAN_POINT('',(-9.921851851851852,11.038822192822790,0.0));
#304=VERTEX_POINT('',#303);
#305=CARTESIAN_POINT('',(-9.921851851851850,-1.915734E-015,0.0));
#306=DIRECTION('',(1.0,0.0,0.0));
#307=DIRECTION('',(0.0,1.0,0.0));
#308=AXIS2_PLACEMENT_3D('',#305,#306,#307);
#309=CIRCLE('',#308,11.038822192822792);
#310=EDGE_CURVE('',#304,#304,#309,.T.);
#311=ORIENTED_EDGE('',*,*,#310,.F.);
#312=EDGE_LOOP('',(#311));
#313=FACE_OUTER_BOUND('',#312,.T.);
#314=ORIENTED_EDGE('',*,*,#242,.T.);
#315=EDGE_LOOP('',(#314));
#316=FACE_BOUND('',#315,.T.);
#317=ADVANCED_FACE('',(#313,#316),#302,.T.);
#318=CARTESIAN_POINT('',(-8.999999999999998,-2.220446E-015,0.0));
#319=DIRECTION('',(1.0,1.930823E-016,0.0));
#320=DIRECTION('',(0.0,0.0,-1.0));
#321=AXIS2_PLACEMENT_3D('',#318,#319,#320);
#322=TOROIDAL_SURFACE('',#321,11.426364659189138,1.0);
#323=CARTESIAN_POINT('',(-10.0,11.426364659189137,0.0));
#324=VERTEX_POINT('',#323);
#325=CARTESIAN_POINT('',(-9.999999999999998,-1.930823E-015,0.0));
#326=DIRECTION('',(1.0,0.0,0.0));
#327=DIRECTION('',(0.0,1.0,0.0));
#328=AXIS2_PLACEMENT_3D('',#325,#326,#327);
#329=CIRCLE('',#328,11.426364659189138);
#330=EDGE_CURVE('',#324,#324,#329,.T.);
#331=ORIENTED_EDGE('',*,*,#330,.F.);
#332=EDGE_LOOP('',(#331));
#333=FACE_OUTER_BOUND('',#332,.T.);
#334=ORIENTED_EDGE('',*,*,#310,.T.);
#335=EDGE_LOOP('',(#334));
#336=FACE_BOUND('',#335,.T.);
#337=ADVANCED_FACE('',(#333,#336),#322,.T.);
#338=CARTESIAN_POINT('',(-10.0,12.613182329594569,0.0));
#339=DIRECTION('',(-1.0,0.0,0.0));
#340=DIRECTION('',(0.0,0.0,1.0));
#341=AXIS2_PLACEMENT_3D('',#338,#339,#340);
#342=PLANE('',#341);
#343=CARTESIAN_POINT('',(-9.999999999999998,13.799999999999997,0.0));
#344=VERTEX_POINT('',#343);
#345=CARTESIAN_POINT('',(-9.999999999999996,-1.930823E-015,0.0));
#346=DIRECTION('',(1.0,0.0,0.0));
#347=DIRECTION('',(0.0,1.0,0.0));
#348=AXIS2_PLACEMENT_3D('',#345,#346,#347);
#349=CIRCLE('',#348,13.799999999999999);
#350=EDGE_CURVE('',#344,#344,#349,.T.);
#351=ORIENTED_EDGE('',*,*,#350,.F.);
#352=EDGE_LOOP('',(#351));
#353=FACE_OUTER_BOUND('',#352,.T.);
#354=ORIENTED_EDGE('',*,*,#330,.T.);
#355=EDGE_LOOP('',(#354));
#356=FACE_BOUND('',#355,.T.);
#357=ADVANCED_FACE('',(#353,#356),#342,.T.);
#358=CARTESIAN_POINT('',(-10.400000000000004,-3.959387E-015,14.199999999999999));
#359=CARTESIAN_POINT('',(-9.999999999999998,-3.882154E-015,14.200000000000005));
#360=CARTESIAN_POINT('',(-9.999999999999998,-3.833170E-015,13.799999999999999));
#361=CARTESIAN_POINT('',(-9.999999999999998,-3.784186E-015,13.399999999999995));
#362=CARTESIAN_POINT('',(-10.400000000000002,-3.861419E-015,13.399999999999999));
#363=CARTESIAN_POINT('',(-10.400000000000000,-14.199999999999999,14.199999999999994));
#364=CARTESIAN_POINT('',(-9.999999999999995,-14.200000000000005,14.199999999999999));
#365=CARTESIAN_POINT('',(-9.999999999999996,-13.799999999999999,13.799999999999994));
#366=CARTESIAN_POINT('',(-9.999999999999996,-13.399999999999995,13.399999999999990));
#367=CARTESIAN_POINT('',(-10.400000000000000,-13.399999999999999,13.399999999999993));
#368=CARTESIAN_POINT('',(-10.400000000000000,-14.200000000000001,-1.738941E-015));
#369=CARTESIAN_POINT('',(-9.999999999999995,-14.200000000000006,-1.738941E-015));
#370=CARTESIAN_POINT('',(-9.999999999999996,-13.800000000000001,-1.689957E-015));
#371=CARTESIAN_POINT('',(-9.999999999999996,-13.399999999999995,-1.640973E-015));
#372=CARTESIAN_POINT('',(-10.400000000000000,-13.400000000000000,-1.640973E-015));
#373=CARTESIAN_POINT('',(-10.400000000000000,-14.199999999999996,-14.199999999999999));
#374=CARTESIAN_POINT('',(-9.999999999999995,-14.200000000000001,-14.200000000000003));
#375=CARTESIAN_POINT('',(-9.999999999999996,-13.799999999999994,-13.799999999999997));
#376=CARTESIAN_POINT('',(-9.999999999999996,-13.399999999999991,-13.399999999999993));
#377=CARTESIAN_POINT('',(-10.400000000000000,-13.399999999999995,-13.399999999999999));
#378=CARTESIAN_POINT('',(-10.400000000000004,-4.815050E-016,-14.199999999999999));
#379=CARTESIAN_POINT('',(-9.999999999999998,-4.042721E-016,-14.200000000000005));
#380=CARTESIAN_POINT('',(-9.999999999999998,-4.532564E-016,-13.799999999999999));
#381=CARTESIAN_POINT('',(-9.999999999999998,-5.022406E-016,-13.399999999999995));
#382=CARTESIAN_POINT('',(-10.400000000000002,-5.794735E-016,-13.399999999999999));
#383=CARTESIAN_POINT('',(-10.400000000000007,14.199999999999996,-14.199999999999994));
#384=CARTESIAN_POINT('',(-10.000000000000002,14.200000000000001,-14.199999999999999));
#385=CARTESIAN_POINT('',(-10.0,13.799999999999994,-13.799999999999994));
#386=CARTESIAN_POINT('',(-10.0,13.399999999999991,-13.399999999999990));
#387=CARTESIAN_POINT('',(-10.400000000000004,13.399999999999995,-13.399999999999993));
#388=CARTESIAN_POINT('',(-10.400000000000007,14.199999999999998,1.738941E-015));
#389=CARTESIAN_POINT('',(-10.000000000000002,14.200000000000003,1.738941E-015));
#390=CARTESIAN_POINT('',(-10.0,13.799999999999997,1.689957E-015));
#391=CARTESIAN_POINT('',(-10.0,13.399999999999993,1.640973E-015));
#392=CARTESIAN_POINT('',(-10.400000000000004,13.399999999999997,1.640973E-015));
#393=CARTESIAN_POINT('',(-10.400000000000007,14.199999999999990,14.199999999999999));
#394=CARTESIAN_POINT('',(-10.000000000000002,14.199999999999998,14.200000000000003));
#395=CARTESIAN_POINT('',(-10.0,13.799999999999992,13.799999999999997));
#396=CARTESIAN_POINT('',(-10.0,13.399999999999988,13.399999999999993));
#397=CARTESIAN_POINT('',(-10.400000000000004,13.399999999999990,13.399999999999999));
#398=CARTESIAN_POINT('',(-10.400000000000004,-3.959387E-015,14.199999999999999));
#399=CARTESIAN_POINT('',(-9.999999999999998,-3.882154E-015,14.200000000000005));
#400=CARTESIAN_POINT('',(-9.999999999999998,-3.833170E-015,13.799999999999999));
#401=CARTESIAN_POINT('',(-9.999999999999998,-3.784186E-015,13.399999999999995));
#402=CARTESIAN_POINT('',(-10.400000000000002,-3.861419E-015,13.399999999999999));
#410=(BOUNDED_SURFACE()B_SPLINE_SURFACE(2,2,((#358,#363,#368,#373,#378,#383,#388,#393,#398),(#359,#364,#369,#374,#379,#384,#389,#394,#399),(#360,#365,#370,#375,#380,#385,#390,#395,#400),(#361,#366,#371,#376,#381,#386,#391,#396,#401),(#362,#367,#372,#377,#382,#387,#392,#397,#402)),.UNSPECIFIED.,.F.,.T.,.U.)B_SPLINE_SURFACE_WITH_KNOTS((3,2,3),(3,2,2,2,3),(-1.129531E-014,1.570796326794897,3.141592653589804),(0.0,1.570796326794897,3.141592653589793,4.712388980384690,6.283185307179586),.UNSPECIFIED.)GEOMETRIC_REPRESENTATION_ITEM()RATIONAL_B_SPLINE_SURFACE(((1.0,0.707106781186548,1.0,0.707106781186548,1.0,0.707106781186548,1.0,0.707106781186548,1.0),(0.707106781186544,0.499999999999998,0.707106781186544,0.499999999999998,0.707106781186544,0.499999999999998,0.707106781186544,0.499999999999998,0.707106781186544),(1.0,0.707106781186548,1.0,0.707106781186548,1.0,0.707106781186548,1.0,0.707106781186548,1.0),(0.707106781186546,0.499999999999999,0.707106781186546,0.499999999999999,0.707106781186546,0.499999999999999,0.707106781186546,0.499999999999999,0.707106781186546),(1.0,0.707106781186548,1.0,0.707106781186548,1.0,0.707106781186548,1.0,0.707106781186548,1.0)))REPRESENTATION_ITEM('')SURFACE());
#411=CARTESIAN_POINT('',(-10.400000000000000,14.199999999999998,0.0));
#412=VERTEX_POINT('',#411);
#413=CARTESIAN_POINT('',(-10.399999999999999,-2.008056E-015,0.0));
#414=DIRECTION('',(1.0,0.0,0.0));
#415=DIRECTION('',(0.0,1.0,0.0));
#416=AXIS2_PLACEMENT_3D('',#413,#414,#415);
#417=CIRCLE('',#416,14.199999999999999);
#418=EDGE_CURVE('',#412,#412,#417,.T.);
#419=ORIENTED_EDGE('',*,*,#418,.F.);
#420=EDGE_LOOP('',(#419));
#421=FACE_OUTER_BOUND('',#420,.T.);
#422=ORIENTED_EDGE('',*,*,#350,.T.);
#423=EDGE_LOOP('',(#422));
#424=FACE_BOUND('',#423,.T.);
#425=ADVANCED_FACE('',(#421,#424),#410,.T.);
#426=CARTESIAN_POINT('',(-10.800000000000002,-2.085288E-015,0.0));
#427=DIRECTION('',(1.0,1.930823E-016,0.0));
#428=DIRECTION('',(0.0,1.0,0.0));
#429=AXIS2_PLACEMENT_3D('',#426,#427,#428);
#430=CYLINDRICAL_SURFACE('',#429,14.199999999999998);
#431=CARTESIAN_POINT('',(-11.200000000000008,14.199999999999996,0.0));
#432=VERTEX_POINT('',#431);
#433=CARTESIAN_POINT('',(-11.200000000000006,-2.162521E-015,0.0));
#434=DIRECTION('',(1.0,0.0,0.0));
#435=DIRECTION('',(0.0,1.0,0.0));
#436=AXIS2_PLACEMENT_3D('',#433,#434,#435);
#437=CIRCLE('',#436,14.199999999999998);
#438=EDGE_CURVE('',#432,#432,#437,.T.);
#439=ORIENTED_EDGE('',*,*,#438,.F.);
#440=EDGE_LOOP('',(#439));
#441=FACE_OUTER_BOUND('',#440,.T.);
#442=ORIENTED_EDGE('',*,*,#418,.T.);
#443=EDGE_LOOP('',(#442));
#444=FACE_BOUND('',#443,.T.);
#445=ADVANCED_FACE('',(#441,#444),#430,.F.);
#446=CARTESIAN_POINT('',(-11.350000000000005,-2.191484E-015,0.0));
#447=DIRECTION('',(-1.0,-1.930823E-016,0.0));
#448=DIRECTION('',(0.0,1.0,0.0));
#449=AXIS2_PLACEMENT_3D('',#446,#447,#448);
#450=CONICAL_SURFACE('',#449,14.349999999999998,45.000000000000441);
#451=CARTESIAN_POINT('',(-11.500000000000005,14.499999999999996,0.0));
#452=VERTEX_POINT('',#451);
#453=CARTESIAN_POINT('',(-11.500000000000004,-2.220446E-015,0.0));
#454=DIRECTION('',(1.0,0.0,0.0));
#455=DIRECTION('',(0.0,1.0,0.0));
#456=AXIS2_PLACEMENT_3D('',#453,#454,#455);
#457=CIRCLE('',#456,14.500000000000000);
#458=EDGE_CURVE('',#452,#452,#457,.T.);
#459=ORIENTED_EDGE('',*,*,#458,.F.);
#460=EDGE_LOOP('',(#459));
#461=FACE_OUTER_BOUND('',#460,.T.);
#462=ORIENTED_EDGE('',*,*,#438,.T.);
#463=EDGE_LOOP('',(#462));
#464=FACE_BOUND('',#463,.T.);
#465=ADVANCED_FACE('',(#461,#464),#450,.F.);
#466=CARTESIAN_POINT('',(-11.500000000000007,15.750000000000000,0.0));
#467=DIRECTION('',(-1.0,0.0,0.0));
#468=DIRECTION('',(0.0,0.0,1.0));
#469=AXIS2_PLACEMENT_3D('',#466,#467,#468);
#470=PLANE('',#469);
#471=CARTESIAN_POINT('',(-11.500000000000007,17.0,0.0));
#472=VERTEX_POINT('',#471);
#473=CARTESIAN_POINT('',(-11.500000000000005,-2.220446E-015,0.0));
#474=DIRECTION('',(1.0,0.0,0.0));
#475=DIRECTION('',(0.0,1.0,0.0));
#476=AXIS2_PLACEMENT_3D('',#473,#474,#475);
#477=CIRCLE('',#476,17.000000000000004);
#478=EDGE_CURVE('',#472,#472,#477,.T.);
#479=ORIENTED_EDGE('',*,*,#478,.F.);
#480=EDGE_LOOP('',(#479));
#481=FACE_OUTER_BOUND('',#480,.T.);
#482=ORIENTED_EDGE('',*,*,#458,.T.);
#483=EDGE_LOOP('',(#482));
#484=FACE_BOUND('',#483,.T.);
#485=ADVANCED_FACE('',(#481,#484),#470,.T.);
#486=CARTESIAN_POINT('',(-9.750000000000004,-1.882552E-015,0.0));
#487=DIRECTION('',(1.0,1.930823E-016,0.0));
#488=DIRECTION('',(0.0,1.0,0.0));
#489=AXIS2_PLACEMENT_3D('',#486,#487,#488);
#490=CYLINDRICAL_SURFACE('',#489,17.000000000000004);
#491=ORIENTED_EDGE('',*,*,#91,.F.);
#492=EDGE_LOOP('',(#491));
#493=FACE_OUTER_BOUND('',#492,.T.);
#494=ORIENTED_EDGE('',*,*,#478,.T.);
#495=EDGE_LOOP('',(#494));
#496=FACE_BOUND('',#495,.T.);
#497=ADVANCED_FACE('',(#493,#496),#490,.T.);
#498=CLOSED_SHELL('',(#95,#115,#183,#203,#212,#229,#249,#317,#337,#357,#425,#445,#465,#485,#497));
#499=MANIFOLD_SOLID_BREP('',#498);
#500=COLOUR_RGB('Metall - Stahl',0.639216005802155,0.639216005802155,0.686275005340576);
#501=FILL_AREA_STYLE_COLOUR('Metall - Stahl',#500);
#502=FILL_AREA_STYLE('Metall - Stahl',(#501));
#503=SURFACE_STYLE_FILL_AREA(#502);
#504=SURFACE_SIDE_STYLE('Metall - Stahl',(#503));
#505=SURFACE_STYLE_USAGE(.BOTH.,#504);
#506=PRESENTATION_STYLE_ASSIGNMENT((#505));
#507=STYLED_ITEM('',(#506),#499);
#508=MECHANICAL_DESIGN_GEOMETRIC_PRESENTATION_REPRESENTATION('',(#507),#36);
#509=ADVANCED_BREP_SHAPE_REPRESENTATION('ABSR',(#499),#36);
#510=SHAPE_REPRESENTATION_RELATIONSHIP('SRR','None',#509,#41);
ENDSEC;
END-ISO-10303-21;
