ISO-10303-21;
HEADER;
/****************************************************************
 * Generated by software with PDE/Lib inside                    *
 * PDElib Version v51a, created Thu 12/14/2006                  *
 * International Technegroup Inc. (www.iti-oh.com)              *
 ****************************************************************/
FILE_DESCRIPTION((''),'2;1');
FILE_NAME('T:\\Arbeitspl\S\dtze\\Aushilfe\\KPeters\\3D\\Steps 08_10\\47201\\47201100X.stp','2010-08-17T10:22:39',('thilbrands'),(''),'Autodesk Inventor 2008','Autodesk Inventor 2008','');
FILE_SCHEMA(('AUTOMOTIVE_DESIGN { 1 0 10303 214 1 1 1 1 }'));
ENDSEC;
DATA;
#5=APPLICATION_CONTEXT('automotive design');
#6=APPLICATION_PROTOCOL_DEFINITION('International Standard','automotive_design',2001,#5);
#7=PRODUCT_CONTEXT('',#5,'mechanical');
#8=PRODUCT('472011001','472011001',$,(#7));
#9=PRODUCT_RELATED_PRODUCT_CATEGORY('part',$,(#8));
#10=PRODUCT_DEFINITION_FORMATION('',$,#8);
#11=PRODUCT_DEFINITION_CONTEXT('part definition',#5,'design');
#12=PRODUCT_DEFINITION('',$,#10,#11);
#18=(NAMED_UNIT(*)PLANE_ANGLE_UNIT()SI_UNIT($,.RADIAN.));
#19=DIMENSIONAL_EXPONENTS(0.0,0.0,0.0,0.0,0.0,0.0,0.0);
#20=PLANE_ANGLE_MEASURE_WITH_UNIT(PLANE_ANGLE_MEASURE(0.017453292500000),#18);
#24=(CONVERSION_BASED_UNIT('DEGREE',#20)NAMED_UNIT(#19)PLANE_ANGLE_UNIT());
#28=(NAMED_UNIT(*)SI_UNIT($,.STERADIAN.)SOLID_ANGLE_UNIT());
#32=(LENGTH_UNIT()NAMED_UNIT(*)SI_UNIT(.MILLI.,.METRE.));
#34=UNCERTAINTY_MEASURE_WITH_UNIT(LENGTH_MEASURE(0.010000000000000),#32,'DISTANCE_ACCURACY_VALUE','');
#36=(GEOMETRIC_REPRESENTATION_CONTEXT(3)GLOBAL_UNCERTAINTY_ASSIGNED_CONTEXT((#34))GLOBAL_UNIT_ASSIGNED_CONTEXT((#24,#28,#32))REPRESENTATION_CONTEXT('None','None'));
#37=AXIS2_PLACEMENT_3D('',#38,#39,#40);
#38=CARTESIAN_POINT('',(0.0,0.0,0.0));
#39=DIRECTION('',(0.0,0.0,1.0));
#40=DIRECTION('',(1.0,0.0,0.0));
#41=SHAPE_REPRESENTATION('',(#37),#36);
#42=PRODUCT_DEFINITION_SHAPE('','',#12);
#43=SHAPE_DEFINITION_REPRESENTATION(#42,#41);
#49=(NAMED_UNIT(*)PLANE_ANGLE_UNIT()SI_UNIT($,.RADIAN.));
#50=DIMENSIONAL_EXPONENTS(0.0,0.0,0.0,0.0,0.0,0.0,0.0);
#51=PLANE_ANGLE_MEASURE_WITH_UNIT(PLANE_ANGLE_MEASURE(0.017453292500000),#49);
#55=(CONVERSION_BASED_UNIT('DEGREE',#51)NAMED_UNIT(#50)PLANE_ANGLE_UNIT());
#59=(NAMED_UNIT(*)SI_UNIT($,.STERADIAN.)SOLID_ANGLE_UNIT());
#63=(LENGTH_UNIT()NAMED_UNIT(*)SI_UNIT(.MILLI.,.METRE.));
#65=UNCERTAINTY_MEASURE_WITH_UNIT(LENGTH_MEASURE(0.000001000000000),#63,'DISTANCE_ACCURACY_VALUE','');
#67=(GEOMETRIC_REPRESENTATION_CONTEXT(3)GLOBAL_UNCERTAINTY_ASSIGNED_CONTEXT((#65))GLOBAL_UNIT_ASSIGNED_CONTEXT((#55,#59,#63))REPRESENTATION_CONTEXT('','3D'));
#68=CARTESIAN_POINT('',(4.440892E-015,0.0,-55.0));
#69=DIRECTION('',(0.0,0.0,1.0));
#70=DIRECTION('',(1.0,0.0,0.0));
#71=AXIS2_PLACEMENT_3D('',#68,#69,#70);
#72=CYLINDRICAL_SURFACE('',#71,11.449999999999999);
#73=CARTESIAN_POINT('',(3.739805E-015,11.449999999999999,-2.757058E-015));
#74=VERTEX_POINT('',#73);
#75=CARTESIAN_POINT('',(3.739805E-015,-11.449999999999999,-2.757058E-015));
#76=VERTEX_POINT('',#75);
#77=CARTESIAN_POINT('',(3.739805E-015,11.449999999999999,-2.757058E-015));
#78=CARTESIAN_POINT('',(3.731693E-015,11.449999999999999,-0.050230608241572));
#79=CARTESIAN_POINT('',(0.000068812156735,11.450000000620314,-0.100461106386716));
#80=CARTESIAN_POINT('',(0.000206435773473,11.449999998139054,-0.150691526094881));
#81=CARTESIAN_POINT('',(0.008873095833478,11.449999841884980,-3.313884617609854));
#82=CARTESIAN_POINT('',(0.290074730907860,11.455499578114260,-6.293285290240963));
#83=CARTESIAN_POINT('',(0.747478800707666,11.425575497212060,-9.067671590758215));
#84=CARTESIAN_POINT('',(1.051470202011743,11.405687910094224,-10.911532708177228));
#85=CARTESIAN_POINT('',(1.433228082310820,11.368355062359369,-12.664887172416034));
#86=CARTESIAN_POINT('',(1.864587284244604,11.297159565989732,-14.321473432119545));
#87=CARTESIAN_POINT('',(2.310764185409466,11.223518420038301,-16.034965390916945));
#88=CARTESIAN_POINT('',(2.807216112528321,11.114401001338438,-17.638441517904006));
#89=CARTESIAN_POINT('',(3.337976533178103,10.952644094644556,-19.161874090223815));
#90=CARTESIAN_POINT('',(3.931793575093609,10.771669771569053,-20.866297005830777));
#91=CARTESIAN_POINT('',(4.567513480492815,10.524741468863263,-22.464207603289903));
#92=CARTESIAN_POINT('',(5.215529008664948,10.193172085262493,-23.952206390083234));
#93=CARTESIAN_POINT('',(5.599807004309376,9.996548991203985,-24.834600663756248));
#94=CARTESIAN_POINT('',(5.988458717280309,9.770272892152759,-25.678343486348361));
#95=CARTESIAN_POINT('',(6.375721029585375,9.510661457170201,-26.482622854513309));
#96=CARTESIAN_POINT('',(6.668509896401559,9.314382771003629,-27.090696600205220));
#97=CARTESIAN_POINT('',(6.961034618653088,9.098322506349525,-27.677005132111702));
#98=CARTESIAN_POINT('',(7.243449723764405,8.867634188400954,-28.227282363240075));
#99=CARTESIAN_POINT('',(8.063947409175503,8.197417803007630,-29.825997114341266));
#100=CARTESIAN_POINT('',(8.811250371105631,7.395079505806510,-31.150924274357553));
#101=CARTESIAN_POINT('',(9.437426627510160,6.483631594281270,-32.219821989361101));
#102=CARTESIAN_POINT('',(9.827881507848096,5.915294354424415,-32.886337726961308));
#103=CARTESIAN_POINT('',(10.167775974880337,5.310157125055498,-33.446461279407409));
#104=CARTESIAN_POINT('',(10.450551277436267,4.678512370153073,-33.905171294626854));
#105=CARTESIAN_POINT('',(10.608898387368400,4.324807076449757,-34.162037451431893));
#106=CARTESIAN_POINT('',(10.749430993823578,3.962721484786262,-34.387134536705055));
#107=CARTESIAN_POINT('',(10.871369500130367,3.593859372824051,-34.581073508703291));
#108=CARTESIAN_POINT('',(10.994312792602587,3.221957798117237,-34.776610558305592));
#109=CARTESIAN_POINT('',(11.100940623896649,2.835566625701616,-34.944559246020717));
#110=CARTESIAN_POINT('',(11.188286492171077,2.434079984121790,-35.081498174091962));
#111=CARTESIAN_POINT('',(11.285921395701724,1.985299632012493,-35.234568024972830));
#112=CARTESIAN_POINT('',(11.359402361375569,1.515868783841303,-35.348816603661831));
#113=CARTESIAN_POINT('',(11.402959872887198,1.036825027342845,-35.416459252974335));
#114=CARTESIAN_POINT('',(11.446815443509731,0.554503228752667,-35.484564773263934));
#115=CARTESIAN_POINT('',(11.460206251415595,0.067414213949157,-35.505259614504588));
#116=CARTESIAN_POINT('',(11.442276354013172,-0.420489997968001,-35.477463254035634));
#117=CARTESIAN_POINT('',(11.426414679329399,-0.852114212684731,-35.452873217781892));
#118=CARTESIAN_POINT('',(11.385898189660102,-1.280629849423783,-35.390085984042820));
#119=CARTESIAN_POINT('',(11.323732922244403,-1.695751369062788,-35.293209282337642));
#120=CARTESIAN_POINT('',(11.255721697349253,-2.149910487243553,-35.187222395758155));
#121=CARTESIAN_POINT('',(11.162433974827975,-2.588478911587623,-35.041431362397994));
#122=CARTESIAN_POINT('',(11.045275354809874,-3.017348560645541,-34.856567373008573));
#123=CARTESIAN_POINT('',(10.906385433316746,-3.525767590156443,-34.637413673782376));
#124=CARTESIAN_POINT('',(10.732493436534725,-4.024041417587327,-34.361117214005880));
#125=CARTESIAN_POINT('',(10.525359435750515,-4.507694393840128,-34.026306557317618));
#126=CARTESIAN_POINT('',(10.363754324541562,-4.885038493398664,-33.765088634604787));
#127=CARTESIAN_POINT('',(10.181920603644153,-5.253478831233727,-33.468230415949890));
#128=CARTESIAN_POINT('',(9.981040735709588,-5.610822206424465,-33.134792604271027));
#129=CARTESIAN_POINT('',(9.840973395572611,-5.859986727454717,-32.902296695830039));
#130=CARTESIAN_POINT('',(9.695482418777548,-6.096982138806165,-32.658341118560422));
#131=CARTESIAN_POINT('',(9.546222097179689,-6.322352700642248,-32.405006259677918));
#132=CARTESIAN_POINT('',(9.271101616628364,-6.737761542126043,-31.938052903487662));
#133=CARTESIAN_POINT('',(8.983156769153229,-7.113791246676062,-31.439088102308748));
#134=CARTESIAN_POINT('',(8.691567299377516,-7.453801572378456,-30.920420484390672));
#135=CARTESIAN_POINT('',(8.515304150824091,-7.659334682319215,-30.606890686976296));
#136=CARTESIAN_POINT('',(8.338788988930931,-7.850595384552193,-30.288185185849667));
#137=CARTESIAN_POINT('',(8.160290660981634,-8.031945986390598,-29.960506883361955));
#138=CARTESIAN_POINT('',(7.337637085575063,-8.867744969599412,-28.450320596343964));
#139=CARTESIAN_POINT('',(6.420666462261424,-9.539855985273610,-26.657851006750384));
#140=CARTESIAN_POINT('',(5.487126310051583,-10.049574362008560,-24.567944442009665));
#141=CARTESIAN_POINT('',(5.238626031887088,-10.185256965594869,-24.011629471039743));
#142=CARTESIAN_POINT('',(4.990369114953841,-10.308745361732017,-23.436801978740750));
#143=CARTESIAN_POINT('',(4.747011879223545,-10.419615070553739,-22.851067955668718));
#144=CARTESIAN_POINT('',(3.497361543879382,-10.988936004828826,-19.843297440204530));
#145=CARTESIAN_POINT('',(2.349976199778231,-11.239423031250334,-16.491321655267093));
#146=CARTESIAN_POINT('',(1.494503135983676,-11.352046528117077,-12.821674810967725));
#147=CARTESIAN_POINT('',(1.319700308810300,-11.375059415946806,-12.071838643986510));
#148=CARTESIAN_POINT('',(1.155179776896246,-11.392600713337004,-11.300591743105439));
#149=CARTESIAN_POINT('',(1.003151649645819,-11.405971539847576,-10.504602870220207));
#150=CARTESIAN_POINT('',(0.460967944802442,-11.453656428068152,-7.665837413324748));
#151=CARTESIAN_POINT('',(0.079675969673175,-11.449928502275327,-4.527649328773252));
#152=CARTESIAN_POINT('',(0.011039514483070,-11.449994678126272,-1.101973953007181));
#153=CARTESIAN_POINT('',(0.004734770357445,-11.450000756846485,-0.787301427425273));
#154=CARTESIAN_POINT('',(0.001081849932177,-11.449999982355921,-0.470203755694008));
#155=CARTESIAN_POINT('',(0.000206435822738,-11.449999998139051,-0.150691526094743));
#156=CARTESIAN_POINT('',(0.000068812156743,-11.450000000620314,-0.100461106388046));
#157=CARTESIAN_POINT('',(3.731693E-015,-11.449999999999999,-0.050230608240241));
#158=CARTESIAN_POINT('',(3.739805E-015,-11.449999999999999,-2.757058E-015));
#159=B_SPLINE_CURVE_WITH_KNOTS('',3,(#77,#78,#79,#80,#81,#82,#83,#84,#85,#86,#87,#88,#89,#90,#91,#92,#93,#94,#95,#96,#97,#98,#99,#100,#101,#102,#103,#104,#105,#106,#107,#108,#109,#110,#111,#112,#113,#114,#115,#116,#117,#118,#119,#120,#121,#122,#123,#124,#125,#126,#127,#128,#129,#130,#131,#132,#133,#134,#135,#136,#137,#138,#139,#140,#141,#142,#143,#144,#145,#146,#147,#148,#149,#150,#151,#152,#153,#154,#155,#156,#157,#158),.UNSPECIFIED.,.F.,.U.,(4,3,3,3,3,3,3,3,3,3,3,3,3,3,3,3,3,3,3,3,3,3,3,3,3,3,3,4),(-12.082595080304047,-12.069519326548555,-11.246091328415256,-10.698839898984142,-10.132789735113759,-9.499490376669149,-9.123939178393924,-8.840004475014254,-8.015091916462975,-7.500714165719390,-7.212675466768558,-6.922263298529141,-6.597641601013966,-6.270798554041868,-5.981657017569728,-5.665324909930951,-5.290317577231766,-4.997738370169763,-4.793731907332434,-4.417701925013362,-4.190395264436662,-3.142796448327496,-2.863934744744974,-1.431967372372487,-1.139366756754678,-0.095854028654087,0.0,0.015069182472072),.UNSPECIFIED.);
#160=EDGE_CURVE('',#74,#76,#159,.T.);
#161=ORIENTED_EDGE('',*,*,#160,.F.);
#162=CARTESIAN_POINT('',(4.440892E-015,0.0,-5.495506E-015));
#163=DIRECTION('',(0.0,0.0,-1.0));
#164=DIRECTION('',(-1.0,0.0,0.0));
#165=AXIS2_PLACEMENT_3D('',#162,#163,#164);
#166=CIRCLE('',#165,11.449999999999999);
#167=EDGE_CURVE('',#76,#74,#166,.T.);
#168=ORIENTED_EDGE('',*,*,#167,.F.);
#169=EDGE_LOOP('',(#161,#168));
#170=FACE_OUTER_BOUND('',#169,.T.);
#171=CARTESIAN_POINT('',(-11.449999999999996,1.402221E-015,-55.0));
#172=VERTEX_POINT('',#171);
#173=CARTESIAN_POINT('',(4.440892E-015,0.0,-55.0));
#174=DIRECTION('',(0.0,0.0,1.0));
#175=DIRECTION('',(1.0,0.0,0.0));
#176=AXIS2_PLACEMENT_3D('',#173,#174,#175);
#177=CIRCLE('',#176,11.449999999999999);
#178=EDGE_CURVE('',#172,#172,#177,.T.);
#179=ORIENTED_EDGE('',*,*,#178,.F.);
#180=EDGE_LOOP('',(#179));
#181=FACE_BOUND('',#180,.T.);
#182=ADVANCED_FACE('',(#170,#181),#72,.F.);
#183=CARTESIAN_POINT('',(27.500000000000000,0.0,-4.440892E-015));
#184=DIRECTION('',(0.0,1.0,0.0));
#185=DIRECTION('',(0.0,0.0,1.0));
#186=AXIS2_PLACEMENT_3D('',#183,#184,#185);
#187=TOROIDAL_SURFACE('',#186,27.499999999999996,11.449999999999999);
#188=CARTESIAN_POINT('',(27.500000000000000,1.402221E-015,-16.050000000000001));
#189=VERTEX_POINT('',#188);
#190=CARTESIAN_POINT('',(27.500000000000004,0.0,-27.500000000000000));
#191=DIRECTION('',(-1.0,0.0,0.0));
#192=DIRECTION('',(0.0,0.0,-1.0));
#193=AXIS2_PLACEMENT_3D('',#190,#191,#192);
#194=CIRCLE('',#193,11.449999999999999);
#195=EDGE_CURVE('',#189,#189,#194,.T.);
#196=ORIENTED_EDGE('',*,*,#195,.F.);
#197=EDGE_LOOP('',(#196));
#198=FACE_OUTER_BOUND('',#197,.T.);
#199=ORIENTED_EDGE('',*,*,#160,.T.);
#200=CARTESIAN_POINT('',(4.440892E-015,0.0,-5.495506E-015));
#201=DIRECTION('',(0.0,0.0,-1.0));
#202=DIRECTION('',(-1.0,0.0,0.0));
#203=AXIS2_PLACEMENT_3D('',#200,#201,#202);
#204=CIRCLE('',#203,11.449999999999999);
#205=EDGE_CURVE('',#74,#76,#204,.T.);
#206=ORIENTED_EDGE('',*,*,#205,.F.);
#207=EDGE_LOOP('',(#199,#206));
#208=FACE_BOUND('',#207,.T.);
#209=ADVANCED_FACE('',(#198,#208),#187,.F.);
#210=CARTESIAN_POINT('',(0.0,0.0,-55.0));
#211=DIRECTION('',(0.0,0.0,1.0));
#212=DIRECTION('',(-1.0,0.0,0.0));
#213=AXIS2_PLACEMENT_3D('',#210,#211,#212);
#214=CYLINDRICAL_SURFACE('',#213,12.699999999999998);
#215=CARTESIAN_POINT('',(12.699999999999998,1.555301E-015,-55.0));
#216=VERTEX_POINT('',#215);
#217=CARTESIAN_POINT('',(0.0,0.0,-55.0));
#218=DIRECTION('',(0.0,0.0,-1.0));
#219=DIRECTION('',(-1.0,0.0,0.0));
#220=AXIS2_PLACEMENT_3D('',#217,#218,#219);
#221=CIRCLE('',#220,12.699999999999998);
#222=EDGE_CURVE('',#216,#216,#221,.T.);
#223=ORIENTED_EDGE('',*,*,#222,.F.);
#224=EDGE_LOOP('',(#223));
#225=FACE_OUTER_BOUND('',#224,.T.);
#226=CARTESIAN_POINT('',(8.433006E-016,-12.699999999999999,-2.757058E-015));
#227=VERTEX_POINT('',#226);
#228=CARTESIAN_POINT('',(8.433006E-016,12.699999999999999,-2.757058E-015));
#229=VERTEX_POINT('',#228);
#230=CARTESIAN_POINT('',(8.433006E-016,-12.699999999999999,-2.757058E-015));
#231=CARTESIAN_POINT('',(8.349315E-016,-12.699999999999999,-0.051825085531268));
#232=CARTESIAN_POINT('',(0.000073249963973,-12.700000000633720,-0.103649995389062));
#233=CARTESIAN_POINT('',(0.000219749381033,-12.699999998098825,-0.155474873857262));
#234=CARTESIAN_POINT('',(0.010449928493656,-12.699999821085004,-3.774450292730128));
#235=CARTESIAN_POINT('',(0.377310229486044,-12.706813502763451,-7.120960558027283));
#236=CARTESIAN_POINT('',(0.937447279727028,-12.665354025755946,-10.154762467432509));
#237=CARTESIAN_POINT('',(1.155133484883291,-12.649241618598369,-11.333789679737281));
#238=CARTESIAN_POINT('',(1.401999250376518,-12.625240799257732,-12.465594847618533));
#239=CARTESIAN_POINT('',(1.668568194649337,-12.589911841621632,-13.547785849039238));
#240=CARTESIAN_POINT('',(1.884790358146710,-12.561255451527044,-14.425583824654479));
#241=CARTESIAN_POINT('',(2.113027005207784,-12.525423713288134,-15.268328933866483));
#242=CARTESIAN_POINT('',(2.355965026856453,-12.479560440665736,-16.098327644640939));
#243=CARTESIAN_POINT('',(3.352636893644737,-12.291402847089493,-19.503461015224556));
#244=CARTESIAN_POINT('',(4.577655444145961,-11.935410551672161,-22.613076708437504));
#245=CARTESIAN_POINT('',(5.868582980661818,-11.262758711749372,-25.407560447095278));
#246=CARTESIAN_POINT('',(6.160400064494929,-11.110704244857278,-26.039259804624741));
#247=CARTESIAN_POINT('',(6.455289257684163,-10.942430808457217,-26.653814515176379));
#248=CARTESIAN_POINT('',(6.745781976507025,-10.760317166581705,-27.240338056194769));
#249=CARTESIAN_POINT('',(7.319878782463399,-10.400408455115626,-28.399476546416992));
#250=CARTESIAN_POINT('',(7.882008058324954,-9.983739147322508,-29.461112844640493));
#251=CARTESIAN_POINT('',(8.417342095166173,-9.509908099079796,-30.428730345978607));
#252=CARTESIAN_POINT('',(8.650804501539254,-9.303267517453874,-30.850714181798310));
#253=CARTESIAN_POINT('',(8.879212470953735,-9.085767284247782,-31.254802239622066));
#254=CARTESIAN_POINT('',(9.101495955234549,-8.857356906936127,-31.641184476498356));
#255=CARTESIAN_POINT('',(9.294802192714725,-8.658722488448410,-31.977197278715241));
#256=CARTESIAN_POINT('',(9.484899880302525,-8.450582282629732,-32.302340288136335));
#257=CARTESIAN_POINT('',(9.674516503104087,-8.227619973672011,-32.622029601811256));
#258=CARTESIAN_POINT('',(10.158137337923867,-7.658950326473812,-33.437403330538757));
#259=CARTESIAN_POINT('',(10.630345837361650,-7.002751328477749,-34.202208819403303));
#260=CARTESIAN_POINT('',(11.057147760523407,-6.247358113791154,-34.875295750109061));
#261=CARTESIAN_POINT('',(11.209629442996793,-5.977482037668747,-35.115766615105521));
#262=CARTESIAN_POINT('',(11.354035291696233,-5.698527519388476,-35.340999770497682));
#263=CARTESIAN_POINT('',(11.487090827528641,-5.416340491522599,-35.546870340835227));
#264=CARTESIAN_POINT('',(11.817668482971156,-4.715244325289492,-36.058357593440178));
#265=CARTESIAN_POINT('',(12.083580675107472,-3.984666676932160,-36.459307971243199));
#266=CARTESIAN_POINT('',(12.280989515717348,-3.235320156466817,-36.754711898325482));
#267=CARTESIAN_POINT('',(12.414484231846929,-2.728586006551514,-36.954474296339583));
#268=CARTESIAN_POINT('',(12.517821492525623,-2.210305064092712,-37.107565766272039));
#269=CARTESIAN_POINT('',(12.589018325359081,-1.675296273431419,-37.212793711162014));
#270=CARTESIAN_POINT('',(12.680833656767859,-0.985349720105349,-37.348495514866372));
#271=CARTESIAN_POINT('',(12.716937815466361,-0.266141175009020,-37.401396662916454));
#272=CARTESIAN_POINT('',(12.692324149278196,0.441483510053859,-37.365166350768490));
#273=CARTESIAN_POINT('',(12.667379484252601,1.158624166703504,-37.328448821839849));
#274=CARTESIAN_POINT('',(12.579929585768546,1.873627609621686,-37.199926809723159));
#275=CARTESIAN_POINT('',(12.441591137768363,2.548884061820718,-36.994256650925152));
#276=CARTESIAN_POINT('',(12.340240287762521,3.043596966234757,-36.843576592587446));
#277=CARTESIAN_POINT('',(12.211924370906104,3.519782301359386,-36.651917403726337));
#278=CARTESIAN_POINT('',(12.061821554782078,3.975230909091243,-36.425271049451766));
#279=CARTESIAN_POINT('',(11.925909579849026,4.387621038442305,-36.220052024144600));
#280=CARTESIAN_POINT('',(11.770785260992522,4.787860351804824,-35.984154610585065));
#281=CARTESIAN_POINT('',(11.595336767245591,5.180556461825551,-35.713961477229255));
#282=CARTESIAN_POINT('',(11.301410522299342,5.838434398297782,-35.261310950561949));
#283=CARTESIAN_POINT('',(10.952074662248869,6.469600402350782,-34.715161853572553));
#284=CARTESIAN_POINT('',(10.553361883308050,7.065164751082648,-34.071539547896649));
#285=CARTESIAN_POINT('',(10.199161202070979,7.594240590090682,-33.499770918520419));
#286=CARTESIAN_POINT('',(9.807145715856816,8.093051238609151,-32.852716884061245));
#287=CARTESIAN_POINT('',(9.387858873862079,8.553251180951543,-32.135097263347888));
#288=CARTESIAN_POINT('',(8.864731471223799,9.127424220550255,-31.239751999279814));
#289=CARTESIAN_POINT('',(8.296982689269559,9.644366721629744,-30.231463112826251));
#290=CARTESIAN_POINT('',(7.699898269666918,10.099582498142203,-29.103072168816841));
#291=CARTESIAN_POINT('',(7.346537767732108,10.368983725164901,-28.435279177971069));
#292=CARTESIAN_POINT('',(6.981549561019683,10.617317799782048,-27.722074536392324));
#293=CARTESIAN_POINT('',(6.620015653870094,10.838145263028858,-26.985213023537735));
#294=CARTESIAN_POINT('',(5.750004991730290,11.369553918534351,-25.211997952900653));
#295=CARTESIAN_POINT('',(4.886462718587839,11.753151428512007,-23.278462551326520));
#296=CARTESIAN_POINT('',(4.080651889692129,12.026565600999813,-21.186592644078818));
#297=CARTESIAN_POINT('',(3.648207850569702,12.173295236373384,-20.063975970822458));
#298=CARTESIAN_POINT('',(3.232495598982139,12.288257713316806,-18.895709679449453));
#299=CARTESIAN_POINT('',(2.842269711394289,12.377863421757835,-17.681902280393150));
#300=CARTESIAN_POINT('',(2.482302344260017,12.460521010538274,-16.562214767226735));
#301=CARTESIAN_POINT('',(2.141301194826902,12.522192092688091,-15.395567735467649));
#302=CARTESIAN_POINT('',(1.827637352181668,12.567805763493892,-14.178861334394391));
#303=CARTESIAN_POINT('',(1.049236629803677,12.681002471173413,-11.159434123625502));
#304=CARTESIAN_POINT('',(0.442486019491232,12.695322042120322,-7.842300570964082));
#305=CARTESIAN_POINT('',(0.165028582061952,12.698927732966379,-4.260650657682869));
#306=CARTESIAN_POINT('',(0.061815000376486,12.700269042358263,-2.928284442099207));
#307=CARTESIAN_POINT('',(0.004188147305434,12.699999929433250,-1.559314553874820));
#308=CARTESIAN_POINT('',(0.000219749329705,12.699999998098825,-0.155474873857407));
#309=CARTESIAN_POINT('',(0.000073249963981,12.700000000633720,-0.103649995390082));
#310=CARTESIAN_POINT('',(8.349315E-016,12.699999999999999,-0.051825085530247));
#311=CARTESIAN_POINT('',(8.433006E-016,12.699999999999999,-2.757058E-015));
#312=B_SPLINE_CURVE_WITH_KNOTS('',3,(#230,#231,#232,#233,#234,#235,#236,#237,#238,#239,#240,#241,#242,#243,#244,#245,#246,#247,#248,#249,#250,#251,#252,#253,#254,#255,#256,#257,#258,#259,#260,#261,#262,#263,#264,#265,#266,#267,#268,#269,#270,#271,#272,#273,#274,#275,#276,#277,#278,#279,#280,#281,#282,#283,#284,#285,#286,#287,#288,#289,#290,#291,#292,#293,#294,#295,#296,#297,#298,#299,#300,#301,#302,#303,#304,#305,#306,#307,#308,#309,#310,#311),.UNSPECIFIED.,.F.,.U.,(4,3,3,3,3,3,3,3,3,3,3,3,3,3,3,3,3,3,3,3,3,3,3,3,3,3,3,4),(-14.455855455094611,-14.438696242336617,-13.240453795584076,-12.774780526910819,-12.397058801260831,-10.847426451103228,-10.497128560133353,-9.804839606544499,-9.502928213119887,-9.240374493916979,-8.570726195208318,-8.331483835436105,-7.737084076859737,-7.335130310283213,-6.816771321259656,-6.291441561550145,-5.906569398752329,-5.558083360359919,-4.974269897540334,-4.455633081345479,-3.808550694314578,-3.425600897656707,-2.504054122740338,-2.009499575575449,-1.553293301441088,-0.421153586691743,0.0,0.015547525659073),.UNSPECIFIED.);
#313=EDGE_CURVE('',#227,#229,#312,.T.);
#314=ORIENTED_EDGE('',*,*,#313,.F.);
#315=CARTESIAN_POINT('',(0.0,0.0,0.0));
#316=DIRECTION('',(0.0,0.0,-1.0));
#317=DIRECTION('',(-1.0,0.0,0.0));
#318=AXIS2_PLACEMENT_3D('',#315,#316,#317);
#319=CIRCLE('',#318,12.699999999999999);
#320=EDGE_CURVE('',#227,#229,#319,.T.);
#321=ORIENTED_EDGE('',*,*,#320,.T.);
#322=EDGE_LOOP('',(#314,#321));
#323=FACE_BOUND('',#322,.T.);
#324=ADVANCED_FACE('',(#225,#323),#214,.T.);
#325=CARTESIAN_POINT('',(0.0,0.0,-55.0));
#326=DIRECTION('',(0.0,0.0,-1.0));
#327=DIRECTION('',(-1.0,0.0,0.0));
#328=AXIS2_PLACEMENT_3D('',#325,#326,#327);
#329=PLANE('',#328);
#330=ORIENTED_EDGE('',*,*,#222,.T.);
#331=EDGE_LOOP('',(#330));
#332=FACE_OUTER_BOUND('',#331,.T.);
#333=ORIENTED_EDGE('',*,*,#178,.T.);
#334=EDGE_LOOP('',(#333));
#335=FACE_BOUND('',#334,.T.);
#336=ADVANCED_FACE('',(#332,#335),#329,.T.);
#337=CARTESIAN_POINT('',(27.500000000000000,0.0,-4.440892E-015));
#338=DIRECTION('',(0.0,1.0,0.0));
#339=DIRECTION('',(0.0,0.0,1.0));
#340=AXIS2_PLACEMENT_3D('',#337,#338,#339);
#341=TOROIDAL_SURFACE('',#340,27.499999999999996,12.699999999999999);
#342=CARTESIAN_POINT('',(27.500000000000000,1.555301E-015,-14.800000000000001));
#343=VERTEX_POINT('',#342);
#344=CARTESIAN_POINT('',(27.500000000000000,0.0,-27.500000000000000));
#345=DIRECTION('',(1.0,0.0,0.0));
#346=DIRECTION('',(0.0,0.0,-1.0));
#347=AXIS2_PLACEMENT_3D('',#344,#345,#346);
#348=CIRCLE('',#347,12.699999999999999);
#349=EDGE_CURVE('',#343,#343,#348,.T.);
#350=ORIENTED_EDGE('',*,*,#349,.F.);
#351=EDGE_LOOP('',(#350));
#352=FACE_OUTER_BOUND('',#351,.T.);
#353=ORIENTED_EDGE('',*,*,#313,.T.);
#354=CARTESIAN_POINT('',(0.0,0.0,0.0));
#355=DIRECTION('',(0.0,0.0,-1.0));
#356=DIRECTION('',(-1.0,0.0,0.0));
#357=AXIS2_PLACEMENT_3D('',#354,#355,#356);
#358=CIRCLE('',#357,12.699999999999999);
#359=EDGE_CURVE('',#229,#227,#358,.T.);
#360=ORIENTED_EDGE('',*,*,#359,.T.);
#361=EDGE_LOOP('',(#353,#360));
#362=FACE_BOUND('',#361,.T.);
#363=ADVANCED_FACE('',(#352,#362),#341,.T.);
#364=CARTESIAN_POINT('',(27.500000000000000,0.0,-27.500000000000000));
#365=DIRECTION('',(1.0,0.0,0.0));
#366=DIRECTION('',(0.0,0.0,-1.0));
#367=AXIS2_PLACEMENT_3D('',#364,#365,#366);
#368=PLANE('',#367);
#369=ORIENTED_EDGE('',*,*,#349,.T.);
#370=EDGE_LOOP('',(#369));
#371=FACE_OUTER_BOUND('',#370,.T.);
#372=ORIENTED_EDGE('',*,*,#195,.T.);
#373=EDGE_LOOP('',(#372));
#374=FACE_BOUND('',#373,.T.);
#375=ADVANCED_FACE('',(#371,#374),#368,.T.);
#376=CARTESIAN_POINT('',(0.0,0.0,0.0));
#377=DIRECTION('',(0.0,0.0,-1.0));
#378=DIRECTION('',(-1.0,0.0,0.0));
#379=AXIS2_PLACEMENT_3D('',#376,#377,#378);
#380=PLANE('',#379);
#381=ORIENTED_EDGE('',*,*,#359,.F.);
#382=ORIENTED_EDGE('',*,*,#320,.F.);
#383=EDGE_LOOP('',(#381,#382));
#384=FACE_OUTER_BOUND('',#383,.T.);
#385=ORIENTED_EDGE('',*,*,#205,.T.);
#386=ORIENTED_EDGE('',*,*,#167,.T.);
#387=EDGE_LOOP('',(#385,#386));
#388=FACE_BOUND('',#387,.T.);
#389=ADVANCED_FACE('',(#384,#388),#380,.F.);
#390=CLOSED_SHELL('',(#182,#209,#324,#336,#363,#375,#389));
#391=MANIFOLD_SOLID_BREP('',#390);
#392=COLOUR_RGB('Metall - Stahl',0.639216005802155,0.639216005802155,0.686275005340576);
#393=FILL_AREA_STYLE_COLOUR('Metall - Stahl',#392);
#394=FILL_AREA_STYLE('Metall - Stahl',(#393));
#395=SURFACE_STYLE_FILL_AREA(#394);
#396=SURFACE_SIDE_STYLE('Metall - Stahl',(#395));
#397=SURFACE_STYLE_USAGE(.BOTH.,#396);
#398=PRESENTATION_STYLE_ASSIGNMENT((#397));
#399=STYLED_ITEM('',(#398),#391);
#400=MECHANICAL_DESIGN_GEOMETRIC_PRESENTATION_REPRESENTATION('',(#399),#36);
#401=ADVANCED_BREP_SHAPE_REPRESENTATION('ABSR',(#391),#36);
#402=SHAPE_REPRESENTATION_RELATIONSHIP('SRR','None',#401,#41);
ENDSEC;
END-ISO-10303-21;
