ISO-10303-21;
HEADER;
FILE_DESCRIPTION (( 'STEP AP214' ),
    '1' );
FILE_NAME ('CR 3''''x2.5''''.STEP',
    '2026-01-13T08:35:23',
    ( '' ),
    ( '' ),
    'SwSTEP 2.0',
    'SolidWorks 2018',
    '' );
FILE_SCHEMA (( 'AUTOMOTIVE_DESIGN' ));
ENDSEC;

DATA;
#1 = FACE_OUTER_BOUND ( 'NONE', #210, .T. ) ;
#2 = EDGE_CURVE ( 'NONE', #119, #166, #21, .T. ) ;
#3 = ADVANCED_FACE ( 'NONE', ( #140 ), #128, .F. ) ;
#4 = AXIS2_PLACEMENT_3D ( 'NONE', #8, #26, #46 ) ;
#5 = CARTESIAN_POINT ( 'NONE',  ( 1.756407519426517578E-15, -7.270521761058058807, 0.0000000000000000000 ) ) ;
#6 = CIRCLE ( 'NONE', #75, 36.45000000000000284 ) ;
#7 = CARTESIAN_POINT ( 'NONE',  ( 3.512815038853035155E-15, -43.72052176105805898, 0.0000000000000000000 ) ) ;
#8 = CARTESIAN_POINT ( 'NONE',  ( -3.975407965780179432E-17, 30.82947823894194173, 0.0000000000000000000 ) ) ;
#9 = COLOUR_RGB ( '',0.7921568627450980005, 0.8196078431372548767, 0.9333333333333333481 ) ;
#10 = AXIS2_PLACEMENT_3D ( 'NONE', #109, #56, #60 ) ;
#11 = ORIENTED_EDGE ( 'NONE', *, *, #146, .T. ) ;
#12 = DIRECTION ( 'NONE',  ( -1.000000000000000000, -4.818676322157797621E-17, -0.0000000000000000000 ) ) ;
#13 = PRESENTATION_STYLE_ASSIGNMENT (( #138 ) ) ;
#14 = UNCERTAINTY_MEASURE_WITH_UNIT (LENGTH_MEASURE( 1.000000000000000082E-05 ), #29, 'distance_accuracy_value', 'NONE');
#15 = ORIENTED_EDGE ( 'NONE', *, *, #120, .F. ) ;
#16 = CIRCLE ( 'NONE', #196, 30.09999999999999787 ) ;
#17 = EDGE_CURVE ( 'NONE', #119, #55, #27, .T. ) ;
#18 = AXIS2_PLACEMENT_3D ( 'NONE', #176, #31, #65 ) ;
#19 = FACE_OUTER_BOUND ( 'NONE', #211, .T. ) ;
#20 = EDGE_CURVE ( 'NONE', #164, #154, #6, .T. ) ;
#21 = CIRCLE ( 'NONE', #41, 31.75000000000000000 ) ;
#22 = CARTESIAN_POINT ( 'NONE',  ( 72.00000000000000000, -7.270521761058055255, 0.0000000000000000000 ) ) ;
#23 =( NAMED_UNIT ( * ) SI_UNIT ( $, .STERADIAN. ) SOLID_ANGLE_UNIT ( ) );
#24 = FACE_OUTER_BOUND ( 'NONE', #74, .T. ) ;
#25 = PRODUCT_DEFINITION_CONTEXT ( 'detailed design', #151, 'design' ) ;
#26 = DIRECTION ( 'NONE',  ( 1.000000000000000000, 4.818676322157797621E-17, 0.0000000000000000000 ) ) ;
#27 = LINE ( 'NONE', #179, #148 ) ;
#28 = EDGE_CURVE ( 'NONE', #166, #168, #42, .T. ) ;
#29 =( LENGTH_UNIT ( ) NAMED_UNIT ( * ) SI_UNIT ( .MILLI., .METRE. ) );
#30 = ORIENTED_EDGE ( 'NONE', *, *, #155, .T. ) ;
#31 = DIRECTION ( 'NONE',  ( -1.000000000000000000, -4.818676322157797621E-17, -0.0000000000000000000 ) ) ;
#32 = PRODUCT_CONTEXT ( 'NONE', #113, 'mechanical' ) ;
#33 = CARTESIAN_POINT ( 'NONE',  ( 72.00000000000000000, -7.270521761058055255, 0.0000000000000000000 ) ) ;
#34 = EDGE_CURVE ( 'NONE', #99, #164, #85, .T. ) ;
#35 = ORIENTED_EDGE ( 'NONE', *, *, #2, .T. ) ;
#36 = CONICAL_SURFACE ( 'NONE', #177, 31.75000000000000000, 0.08796683928646265027 ) ;
#37 = EDGE_CURVE ( 'NONE', #166, #119, #137, .T. ) ;
#38 = ORIENTED_EDGE ( 'NONE', *, *, #17, .T. ) ;
#39 = MANIFOLD_SOLID_BREP ( 'Revolve1', #84 ) ;
#40 = ORIENTED_EDGE ( 'NONE', *, *, #123, .F. ) ;
#41 = AXIS2_PLACEMENT_3D ( 'NONE', #33, #190, #117 ) ;
#42 = LINE ( 'NONE', #208, #71 ) ;
#43 = CARTESIAN_POINT ( 'NONE',  ( 0.0000000000000000000, 29.17947823894194315, 4.463837582892102934E-15 ) ) ;
#44 = EDGE_LOOP ( 'NONE', ( #50, #15, #11, #30 ) ) ;
#45 = CIRCLE ( 'NONE', #68, 36.45000000000000284 ) ;
#46 = DIRECTION ( 'NONE',  ( -4.818676322157797621E-17, 1.000000000000000000, 0.0000000000000000000 ) ) ;
#47 =( LENGTH_UNIT ( ) NAMED_UNIT ( * ) SI_UNIT ( .MILLI., .METRE. ) );
#48 = DIRECTION ( 'NONE',  ( 4.818676322157798238E-17, -1.000000000000000000, 0.0000000000000000000 ) ) ;
#49 = ORIENTED_EDGE ( 'NONE', *, *, #120, .T. ) ;
#50 = ORIENTED_EDGE ( 'NONE', *, *, #34, .F. ) ;
#51 = EDGE_CURVE ( 'NONE', #168, #55, #145, .T. ) ;
#52 = UNCERTAINTY_MEASURE_WITH_UNIT (LENGTH_MEASURE( 1.000000000000000082E-05 ), #47, 'distance_accuracy_value', 'NONE');
#53 = AXIS2_PLACEMENT_3D ( 'NONE', #174, #12, #135 ) ;
#54 = ADVANCED_FACE ( 'NONE', ( #136 ), #152, .T. ) ;
#55 = VERTEX_POINT ( 'NONE', #156 ) ;
#56 = DIRECTION ( 'NONE',  ( -1.000000000000000000, -4.818676322157797621E-17, -0.0000000000000000000 ) ) ;
#57 = SURFACE_STYLE_FILL_AREA ( #124 ) ;
#58 = DIRECTION ( 'NONE',  ( 0.0000000000000000000, -1.000000000000000000, 0.0000000000000000000 ) ) ;
#59 = PRESENTATION_LAYER_ASSIGNMENT (  '', '', ( #122 ) ) ;
#60 = DIRECTION ( 'NONE',  ( 4.818676322157797005E-17, -1.000000000000000000, 0.0000000000000000000 ) ) ;
#61 = ORIENTED_EDGE ( 'NONE', *, *, #34, .T. ) ;
#62 = FACE_BOUND ( 'NONE', #131, .T. ) ;
#63 = CARTESIAN_POINT ( 'NONE',  ( 72.00000000000000000, 22.82947823894194173, 4.075012224162817735E-15 ) ) ;
#64 = PRESENTATION_LAYER_ASSIGNMENT (  '', '', ( #86 ) ) ;
#65 = DIRECTION ( 'NONE',  ( 4.818676322157798238E-17, -1.000000000000000000, 0.0000000000000000000 ) ) ;
#66 = SHAPE_DEFINITION_REPRESENTATION ( #121, #212 ) ;
#67 = CARTESIAN_POINT ( 'NONE',  ( 1.756407519426517578E-15, -7.270521761058058807, 0.0000000000000000000 ) ) ;
#68 = AXIS2_PLACEMENT_3D ( 'NONE', #112, #160, #127 ) ;
#69 =( NAMED_UNIT ( * ) PLANE_ANGLE_UNIT ( ) SI_UNIT ( $, .RADIAN. ) );
#70 = EDGE_LOOP ( 'NONE', ( #88, #180 ) ) ;
#71 = VECTOR ( 'NONE', #162, 1000.000000000000227 ) ;
#72 = ADVANCED_FACE ( 'NONE', ( #19, #62 ), #158, .F. ) ;
#73 = MECHANICAL_DESIGN_GEOMETRIC_PRESENTATION_REPRESENTATION (  '', ( #86 ), #107 ) ;
#74 = EDGE_LOOP ( 'NONE', ( #103, #108 ) ) ;
#75 = AXIS2_PLACEMENT_3D ( 'NONE', #67, #149, #48 ) ;
#76 = DIRECTION ( 'NONE',  ( -1.000000000000000000, -4.818676322157797621E-17, -0.0000000000000000000 ) ) ;
#77 = DIRECTION ( 'NONE',  ( -1.000000000000000000, -4.818676322157797621E-17, -0.0000000000000000000 ) ) ;
#78 = UNCERTAINTY_MEASURE_WITH_UNIT (LENGTH_MEASURE( 1.000000000000000082E-05 ), #182, 'distance_accuracy_value', 'NONE');
#79 = CARTESIAN_POINT ( 'NONE',  ( 72.00000000000000000, 24.47947823894194386, 4.277078946022131676E-15 ) ) ;
#80 = DIRECTION ( 'NONE',  ( 0.0000000000000000000, -1.000000000000000000, 0.0000000000000000000 ) ) ;
#81 = CARTESIAN_POINT ( 'NONE',  ( 72.00000000000000000, -7.270521761058055255, 0.0000000000000000000 ) ) ;
#82 = VERTEX_POINT ( 'NONE', #157 ) ;
#83 = DIRECTION ( 'NONE',  ( 0.0000000000000000000, 0.0000000000000000000, 1.000000000000000000 ) ) ;
#84 = CLOSED_SHELL ( 'NONE', ( #3, #142, #54, #72, #144, #183 ) ) ;
#85 = LINE ( 'NONE', #207, #202 ) ;
#86 = STYLED_ITEM ( 'NONE', ( #13 ), #39 ) ;
#87 = FACE_OUTER_BOUND ( 'NONE', #44, .T. ) ;
#88 = ORIENTED_EDGE ( 'NONE', *, *, #155, .F. ) ;
#89 = CARTESIAN_POINT ( 'NONE',  ( 72.00000000000000000, 24.47947823894194030, 0.0000000000000000000 ) ) ;
#90 = COLOUR_RGB ( '',0.7921568627450980005, 0.8196078431372548767, 0.9333333333333333481 ) ;
#91 = DIRECTION ( 'NONE',  ( 4.818676322157798238E-17, -1.000000000000000000, 0.0000000000000000000 ) ) ;
#92 = AXIS2_PLACEMENT_3D ( 'NONE', #192, #83, #191 ) ;
#93 = CARTESIAN_POINT ( 'NONE',  ( 72.00000000000000000, -39.02052176105804904, 0.0000000000000000000 ) ) ;
#94 = DIRECTION ( 'NONE',  ( -1.000000000000000000, -4.818676322157797621E-17, -0.0000000000000000000 ) ) ;
#95 = CARTESIAN_POINT ( 'NONE',  ( 1.835915678742120710E-15, 30.82947823894193462, 4.665904304751415298E-15 ) ) ;
#96 = ORIENTED_EDGE ( 'NONE', *, *, #17, .F. ) ;
#97 =( GEOMETRIC_REPRESENTATION_CONTEXT ( 3 ) GLOBAL_UNCERTAINTY_ASSIGNED_CONTEXT ( ( #52 ) ) GLOBAL_UNIT_ASSIGNED_CONTEXT ( ( #47, #98, #161 ) ) REPRESENTATION_CONTEXT ( 'NONE', 'WORKASPACE' ) );
#98 =( NAMED_UNIT ( * ) PLANE_ANGLE_UNIT ( ) SI_UNIT ( $, .RADIAN. ) );
#99 = VERTEX_POINT ( 'NONE', #63 ) ;
#100 =( GEOMETRIC_REPRESENTATION_CONTEXT ( 3 ) GLOBAL_UNCERTAINTY_ASSIGNED_CONTEXT ( ( #14 ) ) GLOBAL_UNIT_ASSIGNED_CONTEXT ( ( #29, #69, #114 ) ) REPRESENTATION_CONTEXT ( 'NONE', 'WORKASPACE' ) );
#101 = SURFACE_STYLE_USAGE ( .BOTH. , #178 ) ;
#102 = ORIENTED_EDGE ( 'NONE', *, *, #197, .T. ) ;
#103 = ORIENTED_EDGE ( 'NONE', *, *, #123, .T. ) ;
#104 = ORIENTED_EDGE ( 'NONE', *, *, #146, .F. ) ;
#105 =( NAMED_UNIT ( * ) PLANE_ANGLE_UNIT ( ) SI_UNIT ( $, .RADIAN. ) );
#106 = PRODUCT_DEFINITION_FORMATION_WITH_SPECIFIED_SOURCE ( 'ANY', '', #175, .NOT_KNOWN. ) ;
#107 =( GEOMETRIC_REPRESENTATION_CONTEXT ( 3 ) GLOBAL_UNCERTAINTY_ASSIGNED_CONTEXT ( ( #78 ) ) GLOBAL_UNIT_ASSIGNED_CONTEXT ( ( #182, #105, #23 ) ) REPRESENTATION_CONTEXT ( 'NONE', 'WORKASPACE' ) );
#108 = ORIENTED_EDGE ( 'NONE', *, *, #51, .T. ) ;
#109 = CARTESIAN_POINT ( 'NONE',  ( 1.835915678742120710E-15, -7.270521761058058807, 0.0000000000000000000 ) ) ;
#110 = DIRECTION ( 'NONE',  ( -0.9961334119159603873, -0.08785343285647716216, 0.0000000000000000000 ) ) ;
#111 = CIRCLE ( 'NONE', #10, 38.10000000000000142 ) ;
#112 = CARTESIAN_POINT ( 'NONE',  ( 1.756407519426517578E-15, -7.270521761058058807, 0.0000000000000000000 ) ) ;
#113 = APPLICATION_CONTEXT ( 'automotive_design' ) ;
#114 =( NAMED_UNIT ( * ) SI_UNIT ( $, .STERADIAN. ) SOLID_ANGLE_UNIT ( ) );
#115 = DIRECTION ( 'NONE',  ( -0.9961334119159603873, 0.08785343285647709277, 1.075894253417916351E-17 ) ) ;
#116 = AXIS2_PLACEMENT_3D ( 'NONE', #22, #165, #194 ) ;
#117 = DIRECTION ( 'NONE',  ( 0.0000000000000000000, -1.000000000000000000, 0.0000000000000000000 ) ) ;
#118 = PRODUCT_RELATED_PRODUCT_CATEGORY ( 'part', '', ( #175 ) ) ;
#119 = VERTEX_POINT ( 'NONE', #93 ) ;
#120 = EDGE_CURVE ( 'NONE', #82, #99, #16, .T. ) ;
#121 = PRODUCT_DEFINITION_SHAPE ( 'NONE', 'NONE',  #141 ) ;
#122 = STYLED_ITEM ( 'NONE', ( #189 ), #212 ) ;
#123 = EDGE_CURVE ( 'NONE', #55, #168, #111, .T. ) ;
#124 = FILL_AREA_STYLE ('',( #133 ) ) ;
#125 = SURFACE_SIDE_STYLE ('',( #57 ) ) ;
#126 = ORIENTED_EDGE ( 'NONE', *, *, #20, .T. ) ;
#127 = DIRECTION ( 'NONE',  ( 4.818676322157798238E-17, -1.000000000000000000, 0.0000000000000000000 ) ) ;
#128 = CONICAL_SURFACE ( 'NONE', #18, 36.45000000000000284, 0.08796683928646270578 ) ;
#129 = DIRECTION ( 'NONE',  ( 4.818676322157797005E-17, -1.000000000000000000, 0.0000000000000000000 ) ) ;
#130 = ORIENTED_EDGE ( 'NONE', *, *, #37, .F. ) ;
#131 = EDGE_LOOP ( 'NONE', ( #49, #102 ) ) ;
#132 = AXIS2_PLACEMENT_3D ( 'NONE', #81, #187, #80 ) ;
#133 = FILL_AREA_STYLE_COLOUR ( '', #90 ) ;
#134 = APPLICATION_PROTOCOL_DEFINITION ( 'draft international standard', 'automotive_design', 1998, #113 ) ;
#135 = DIRECTION ( 'NONE',  ( 0.0000000000000000000, -1.000000000000000000, 0.0000000000000000000 ) ) ;
#136 = FACE_OUTER_BOUND ( 'NONE', #195, .T. ) ;
#137 = CIRCLE ( 'NONE', #116, 31.75000000000000000 ) ;
#138 = SURFACE_STYLE_USAGE ( .BOTH. , #125 ) ;
#139 = ORIENTED_EDGE ( 'NONE', *, *, #197, .F. ) ;
#140 = FACE_OUTER_BOUND ( 'NONE', #209, .T. ) ;
#141 = PRODUCT_DEFINITION ( 'UNKNOWN', '', #106, #25 ) ;
#142 = ADVANCED_FACE ( 'NONE', ( #1 ), #36, .T. ) ;
#143 = ORIENTED_EDGE ( 'NONE', *, *, #51, .F. ) ;
#144 = ADVANCED_FACE ( 'NONE', ( #87 ), #193, .F. ) ;
#145 = CIRCLE ( 'NONE', #171, 38.10000000000000142 ) ;
#146 = EDGE_CURVE ( 'NONE', #82, #154, #159, .T. ) ;
#147 = DIRECTION ( 'NONE',  ( -1.000000000000000000, -4.818676322157797621E-17, -0.0000000000000000000 ) ) ;
#148 = VECTOR ( 'NONE', #188, 1000.000000000000227 ) ;
#149 = DIRECTION ( 'NONE',  ( -1.000000000000000000, -4.818676322157797621E-17, -0.0000000000000000000 ) ) ;
#150 = FILL_AREA_STYLE_COLOUR ( '', #9 ) ;
#151 = APPLICATION_CONTEXT ( 'automotive_design' ) ;
#152 = CONICAL_SURFACE ( 'NONE', #132, 31.75000000000000000, 0.08796683928646265027 ) ;
#153 = CIRCLE ( 'NONE', #53, 30.09999999999999787 ) ;
#154 = VERTEX_POINT ( 'NONE', #7 ) ;
#155 = EDGE_CURVE ( 'NONE', #154, #164, #45, .T. ) ;
#156 = CARTESIAN_POINT ( 'NONE',  ( 1.835915678742120710E-15, -45.37052176105805046, 0.0000000000000000000 ) ) ;
#157 = CARTESIAN_POINT ( 'NONE',  ( 72.00000000000000000, -37.37052176105805046, 0.0000000000000000000 ) ) ;
#158 = PLANE ( 'NONE',  #213 ) ;
#159 = LINE ( 'NONE', #201, #184 ) ;
#160 = DIRECTION ( 'NONE',  ( -1.000000000000000000, -4.818676322157797621E-17, -0.0000000000000000000 ) ) ;
#161 =( NAMED_UNIT ( * ) SI_UNIT ( $, .STERADIAN. ) SOLID_ANGLE_UNIT ( ) );
#162 = DIRECTION ( 'NONE',  ( -0.9961334119159603873, 0.08785343285647703726, 1.075894253417915734E-17 ) ) ;
#163 = FACE_BOUND ( 'NONE', #70, .T. ) ;
#164 = VERTEX_POINT ( 'NONE', #43 ) ;
#165 = DIRECTION ( 'NONE',  ( -1.000000000000000000, -4.818676322157797621E-17, -0.0000000000000000000 ) ) ;
#166 = VERTEX_POINT ( 'NONE', #79 ) ;
#167 = ORIENTED_EDGE ( 'NONE', *, *, #28, .T. ) ;
#168 = VERTEX_POINT ( 'NONE', #95 ) ;
#169 = DIRECTION ( 'NONE',  ( 4.818676322157797621E-17, -1.000000000000000000, 0.0000000000000000000 ) ) ;
#170 = ORIENTED_EDGE ( 'NONE', *, *, #28, .F. ) ;
#171 = AXIS2_PLACEMENT_3D ( 'NONE', #173, #76, #129 ) ;
#172 = CARTESIAN_POINT ( 'NONE',  ( 72.00000000000000000, -7.270521761058055255, 0.0000000000000000000 ) ) ;
#173 = CARTESIAN_POINT ( 'NONE',  ( 1.835915678742120710E-15, -7.270521761058058807, 0.0000000000000000000 ) ) ;
#174 = CARTESIAN_POINT ( 'NONE',  ( 72.00000000000000000, -7.270521761058055255, 0.0000000000000000000 ) ) ;
#175 = PRODUCT ( 'CR 3''''''''x2.5''''''''', 'CR 3''''''''x2.5''''''''', '', ( #32 ) ) ;
#176 = CARTESIAN_POINT ( 'NONE',  ( 1.756407519426517578E-15, -7.270521761058058807, 0.0000000000000000000 ) ) ;
#177 = AXIS2_PLACEMENT_3D ( 'NONE', #172, #94, #58 ) ;
#178 = SURFACE_SIDE_STYLE ('',( #181 ) ) ;
#179 = CARTESIAN_POINT ( 'NONE',  ( 72.00000000000000000, -39.02052176105804904, 0.0000000000000000000 ) ) ;
#180 = ORIENTED_EDGE ( 'NONE', *, *, #20, .F. ) ;
#181 = SURFACE_STYLE_FILL_AREA ( #205 ) ;
#182 =( LENGTH_UNIT ( ) NAMED_UNIT ( * ) SI_UNIT ( .MILLI., .METRE. ) );
#183 = ADVANCED_FACE ( 'NONE', ( #163, #24 ), #203, .F. ) ;
#184 = VECTOR ( 'NONE', #110, 1000.000000000000227 ) ;
#185 = AXIS2_PLACEMENT_3D ( 'NONE', #5, #77, #91 ) ;
#186 = DIRECTION ( 'NONE',  ( 0.0000000000000000000, -1.000000000000000000, 0.0000000000000000000 ) ) ;
#187 = DIRECTION ( 'NONE',  ( -1.000000000000000000, -4.818676322157797621E-17, -0.0000000000000000000 ) ) ;
#188 = DIRECTION ( 'NONE',  ( -0.9961334119159603873, -0.08785343285647712053, 0.0000000000000000000 ) ) ;
#189 = PRESENTATION_STYLE_ASSIGNMENT (( #101 ) ) ;
#190 = DIRECTION ( 'NONE',  ( -1.000000000000000000, -4.818676322157797621E-17, -0.0000000000000000000 ) ) ;
#191 = DIRECTION ( 'NONE',  ( 1.000000000000000000, 0.0000000000000000000, 0.0000000000000000000 ) ) ;
#192 = CARTESIAN_POINT ( 'NONE',  ( 0.0000000000000000000, 0.0000000000000000000, 0.0000000000000000000 ) ) ;
#193 = CONICAL_SURFACE ( 'NONE', #185, 36.45000000000000284, 0.08796683928646270578 ) ;
#194 = DIRECTION ( 'NONE',  ( 0.0000000000000000000, -1.000000000000000000, 0.0000000000000000000 ) ) ;
#195 = EDGE_LOOP ( 'NONE', ( #170, #214, #38, #143 ) ) ;
#196 = AXIS2_PLACEMENT_3D ( 'NONE', #198, #147, #186 ) ;
#197 = EDGE_CURVE ( 'NONE', #99, #82, #153, .T. ) ;
#198 = CARTESIAN_POINT ( 'NONE',  ( 72.00000000000000000, -7.270521761058055255, 0.0000000000000000000 ) ) ;
#199 = MECHANICAL_DESIGN_GEOMETRIC_PRESENTATION_REPRESENTATION (  '', ( #122 ), #97 ) ;
#200 = ORIENTED_EDGE ( 'NONE', *, *, #2, .F. ) ;
#201 = CARTESIAN_POINT ( 'NONE',  ( 3.512815038853035155E-15, -43.72052176105805898, 0.0000000000000000000 ) ) ;
#202 = VECTOR ( 'NONE', #115, 1000.000000000000227 ) ;
#203 = PLANE ( 'NONE',  #4 ) ;
#204 = DIRECTION ( 'NONE',  ( -1.000000000000000000, -4.818676322157797621E-17, 0.0000000000000000000 ) ) ;
#205 = FILL_AREA_STYLE ('',( #150 ) ) ;
#206 = APPLICATION_PROTOCOL_DEFINITION ( 'draft international standard', 'automotive_design', 1998, #151 ) ;
#207 = CARTESIAN_POINT ( 'NONE',  ( 0.0000000000000000000, 29.17947823894194315, 4.463837582892102934E-15 ) ) ;
#208 = CARTESIAN_POINT ( 'NONE',  ( 72.00000000000000000, 24.47947823894194386, 3.888253587292846476E-15 ) ) ;
#209 = EDGE_LOOP ( 'NONE', ( #139, #61, #126, #104 ) ) ;
#210 = EDGE_LOOP ( 'NONE', ( #35, #167, #40, #96 ) ) ;
#211 = EDGE_LOOP ( 'NONE', ( #200, #130 ) ) ;
#212 = ADVANCED_BREP_SHAPE_REPRESENTATION ( 'CR 3''''''''x2.5''''''''', ( #39, #92 ), #100 ) ;
#213 = AXIS2_PLACEMENT_3D ( 'NONE', #89, #204, #169 ) ;
#214 = ORIENTED_EDGE ( 'NONE', *, *, #37, .T. ) ;
ENDSEC;
END-ISO-10303-21;
