ISO-10303-21;
HEADER;
/* Generated by software containing ST-Developer
 * from STEP Tools, Inc. (www.steptools.com) 
 */

FILE_DESCRIPTION(
/* description */ (''),
/* implementation_level */ '2;1');

FILE_NAME(
/* name */ 'Z:\\Geberit\\Export\\NewStep\\90987.stp',
/* time_stamp */ '2014-04-03T10:25:22+02:00',
/* author */ ('bruh'),
/* organization */ (''),
/* preprocessor_version */ 'ST-DEVELOPER v15.2',
/* originating_system */ 'Autodesk Inventor 2014',
/* authorisation */ '');

FILE_SCHEMA (('AUTOMOTIVE_DESIGN { 1 0 10303 214 3 1 1 }'));
ENDSEC;

DATA;
#10=ITEM_DEFINED_TRANSFORMATION($,$,#180,#208);
#11=ITEM_DEFINED_TRANSFORMATION($,$,#198,#209);
#12=(
REPRESENTATION_RELATIONSHIP($,$,#402,#404)
REPRESENTATION_RELATIONSHIP_WITH_TRANSFORMATION(#10)
SHAPE_REPRESENTATION_RELATIONSHIP()
);
#13=(
REPRESENTATION_RELATIONSHIP($,$,#403,#404)
REPRESENTATION_RELATIONSHIP_WITH_TRANSFORMATION(#11)
SHAPE_REPRESENTATION_RELATIONSHIP()
);
#14=CONTEXT_DEPENDENT_SHAPE_REPRESENTATION(#12,#400);
#15=CONTEXT_DEPENDENT_SHAPE_REPRESENTATION(#13,#401);
#16=NEXT_ASSEMBLY_USAGE_OCCURRENCE('102555:1',$,$,#408,#406,$);
#17=NEXT_ASSEMBLY_USAGE_OCCURRENCE('100115:1',$,$,#408,#407,$);
#18=SHAPE_REPRESENTATION_RELATIONSHIP('SRR','None',#402,#20);
#19=SHAPE_REPRESENTATION_RELATIONSHIP('SRR','None',#403,#21);
#20=ADVANCED_BREP_SHAPE_REPRESENTATION($,(#178),#385);
#21=ADVANCED_BREP_SHAPE_REPRESENTATION($,(#179),#386);
#22=STYLED_ITEM($,(#418),#178);
#23=STYLED_ITEM($,(#419),#179);
#24=CONICAL_SURFACE($,#187,42.75,45.);
#25=CONICAL_SURFACE($,#191,42.75,44.9999999999999);
#26=CIRCLE($,#183,41.);
#27=CIRCLE($,#184,38.25);
#28=CIRCLE($,#186,41.);
#29=CIRCLE($,#188,44.5);
#30=CIRCLE($,#190,44.5);
#31=CIRCLE($,#192,41.);
#32=CIRCLE($,#194,41.);
#33=CIRCLE($,#196,38.25);
#34=CIRCLE($,#200,36.05);
#35=CIRCLE($,#201,36.05);
#36=CIRCLE($,#203,38.05);
#37=CIRCLE($,#205,38.05);
#38=PLANE($,#182);
#39=PLANE($,#195);
#40=PLANE($,#202);
#41=PLANE($,#206);
#42=FACE_BOUND($,#71,.T.);
#43=FACE_BOUND($,#73,.T.);
#44=FACE_BOUND($,#75,.T.);
#45=FACE_BOUND($,#77,.T.);
#46=FACE_BOUND($,#78,.T.);
#47=FACE_BOUND($,#79,.T.);
#48=FACE_BOUND($,#80,.T.);
#49=FACE_BOUND($,#82,.T.);
#50=FACE_BOUND($,#84,.T.);
#51=FACE_BOUND($,#85,.T.);
#52=FACE_BOUND($,#86,.T.);
#53=FACE_BOUND($,#87,.T.);
#54=FACE_BOUND($,#88,.T.);
#55=FACE_BOUND($,#89,.T.);
#56=FACE_BOUND($,#91,.T.);
#57=FACE_BOUND($,#92,.T.);
#58=FACE_BOUND($,#93,.T.);
#59=FACE_BOUND($,#95,.T.);
#60=FACE_BOUND($,#96,.T.);
#61=FACE_BOUND($,#97,.T.);
#62=FACE_OUTER_BOUND($,#70,.T.);
#63=FACE_OUTER_BOUND($,#72,.T.);
#64=FACE_OUTER_BOUND($,#74,.T.);
#65=FACE_OUTER_BOUND($,#76,.T.);
#66=FACE_OUTER_BOUND($,#81,.T.);
#67=FACE_OUTER_BOUND($,#83,.T.);
#68=FACE_OUTER_BOUND($,#90,.T.);
#69=FACE_OUTER_BOUND($,#94,.T.);
#70=EDGE_LOOP($,(#128));
#71=EDGE_LOOP($,(#129));
#72=EDGE_LOOP($,(#130));
#73=EDGE_LOOP($,(#131));
#74=EDGE_LOOP($,(#132));
#75=EDGE_LOOP($,(#133));
#76=EDGE_LOOP($,(#134));
#77=EDGE_LOOP($,(#135));
#78=EDGE_LOOP($,(#136));
#79=EDGE_LOOP($,(#137));
#80=EDGE_LOOP($,(#138));
#81=EDGE_LOOP($,(#139));
#82=EDGE_LOOP($,(#140));
#83=EDGE_LOOP($,(#141));
#84=EDGE_LOOP($,(#142));
#85=EDGE_LOOP($,(#143));
#86=EDGE_LOOP($,(#144));
#87=EDGE_LOOP($,(#145));
#88=EDGE_LOOP($,(#146));
#89=EDGE_LOOP($,(#147));
#90=EDGE_LOOP($,(#148));
#91=EDGE_LOOP($,(#149));
#92=EDGE_LOOP($,(#150));
#93=EDGE_LOOP($,(#151));
#94=EDGE_LOOP($,(#152));
#95=EDGE_LOOP($,(#153));
#96=EDGE_LOOP($,(#154));
#97=EDGE_LOOP($,(#155));
#98=B_SPLINE_CURVE_WITH_KNOTS($,3,(#273,#274,#275,#276,#277,#278,#279,#280,
#281,#282,#283,#284,#285,#286,#287,#288,#289,#290,#291,#292,#293,#294,#295,
#296,#297,#298,#299,#300,#301,#302,#303,#304,#305,#306),.UNSPECIFIED.,.T.,
 .F.,(4,2,2,2,2,2,2,2,2,2,2,2,2,2,2,2,4),(0.,0.0753415697580673,0.150683139516135,
0.226032097234172,0.30138105495221,0.376818862675468,0.452256670398726,
0.527607157654161,0.602957644909595,0.678308132165029,0.753658619420463,
0.829096427143721,0.904534234866979,0.979883192585017,1.05523215030306,
1.13057372006112,1.20591528981919),.UNSPECIFIED.);
#99=B_SPLINE_CURVE_WITH_KNOTS($,3,(#308,#309,#310,#311,#312,#313,#314,#315,
#316,#317,#318,#319,#320,#321,#322,#323,#324,#325,#326,#327,#328,#329,#330,
#331,#332,#333,#334,#335,#336,#337,#338,#339,#340,#341),.UNSPECIFIED.,.T.,
 .F.,(4,2,2,2,2,2,2,2,2,2,2,2,2,2,2,2,4),(0.,0.0753430655481507,0.150686131096301,
0.226039199498286,0.30139226790027,0.376865706387667,0.452339144875064,
0.527694336128301,0.603049527381537,0.678404718634773,0.753759909888009,
0.829233348375406,0.904706786862804,0.980059855264788,1.05541292366677,
1.13075598921492,1.20609905476307),.UNSPECIFIED.);
#100=VERTEX_POINT($,#272);
#101=VERTEX_POINT($,#307);
#102=VERTEX_POINT($,#343);
#103=VERTEX_POINT($,#345);
#104=VERTEX_POINT($,#348);
#105=VERTEX_POINT($,#351);
#106=VERTEX_POINT($,#354);
#107=VERTEX_POINT($,#357);
#108=VERTEX_POINT($,#360);
#109=VERTEX_POINT($,#363);
#110=VERTEX_POINT($,#368);
#111=VERTEX_POINT($,#370);
#112=VERTEX_POINT($,#373);
#113=VERTEX_POINT($,#376);
#114=EDGE_CURVE($,#100,#100,#98,.T.);
#115=EDGE_CURVE($,#101,#101,#99,.T.);
#116=EDGE_CURVE($,#102,#102,#26,.T.);
#117=EDGE_CURVE($,#103,#103,#27,.T.);
#118=EDGE_CURVE($,#104,#104,#28,.T.);
#119=EDGE_CURVE($,#105,#105,#29,.T.);
#120=EDGE_CURVE($,#106,#106,#30,.T.);
#121=EDGE_CURVE($,#107,#107,#31,.T.);
#122=EDGE_CURVE($,#108,#108,#32,.T.);
#123=EDGE_CURVE($,#109,#109,#33,.T.);
#124=EDGE_CURVE($,#110,#110,#34,.T.);
#125=EDGE_CURVE($,#111,#111,#35,.T.);
#126=EDGE_CURVE($,#112,#112,#36,.T.);
#127=EDGE_CURVE($,#113,#113,#37,.T.);
#128=ORIENTED_EDGE($,*,*,#114,.F.);
#129=ORIENTED_EDGE($,*,*,#115,.F.);
#130=ORIENTED_EDGE($,*,*,#116,.F.);
#131=ORIENTED_EDGE($,*,*,#117,.T.);
#132=ORIENTED_EDGE($,*,*,#118,.F.);
#133=ORIENTED_EDGE($,*,*,#116,.T.);
#134=ORIENTED_EDGE($,*,*,#119,.F.);
#135=ORIENTED_EDGE($,*,*,#118,.T.);
#136=ORIENTED_EDGE($,*,*,#114,.T.);
#137=ORIENTED_EDGE($,*,*,#120,.F.);
#138=ORIENTED_EDGE($,*,*,#119,.T.);
#139=ORIENTED_EDGE($,*,*,#121,.F.);
#140=ORIENTED_EDGE($,*,*,#120,.T.);
#141=ORIENTED_EDGE($,*,*,#122,.F.);
#142=ORIENTED_EDGE($,*,*,#121,.T.);
#143=ORIENTED_EDGE($,*,*,#123,.F.);
#144=ORIENTED_EDGE($,*,*,#122,.T.);
#145=ORIENTED_EDGE($,*,*,#115,.T.);
#146=ORIENTED_EDGE($,*,*,#117,.F.);
#147=ORIENTED_EDGE($,*,*,#123,.T.);
#148=ORIENTED_EDGE($,*,*,#124,.F.);
#149=ORIENTED_EDGE($,*,*,#125,.F.);
#150=ORIENTED_EDGE($,*,*,#124,.T.);
#151=ORIENTED_EDGE($,*,*,#126,.F.);
#152=ORIENTED_EDGE($,*,*,#126,.T.);
#153=ORIENTED_EDGE($,*,*,#127,.T.);
#154=ORIENTED_EDGE($,*,*,#125,.T.);
#155=ORIENTED_EDGE($,*,*,#127,.F.);
#156=CYLINDRICAL_SURFACE($,#181,2.);
#157=CYLINDRICAL_SURFACE($,#185,41.);
#158=CYLINDRICAL_SURFACE($,#189,44.5);
#159=CYLINDRICAL_SURFACE($,#193,41.);
#160=CYLINDRICAL_SURFACE($,#197,38.25);
#161=CYLINDRICAL_SURFACE($,#199,36.05);
#162=CYLINDRICAL_SURFACE($,#204,38.05);
#163=ADVANCED_FACE($,(#62,#42),#156,.F.);
#164=ADVANCED_FACE($,(#63,#43),#38,.T.);
#165=ADVANCED_FACE($,(#64,#44),#157,.T.);
#166=ADVANCED_FACE($,(#65,#45),#24,.T.);
#167=ADVANCED_FACE($,(#46,#47,#48),#158,.T.);
#168=ADVANCED_FACE($,(#66,#49),#25,.T.);
#169=ADVANCED_FACE($,(#67,#50),#159,.T.);
#170=ADVANCED_FACE($,(#51,#52),#39,.T.);
#171=ADVANCED_FACE($,(#53,#54,#55),#160,.F.);
#172=ADVANCED_FACE($,(#68,#56),#161,.F.);
#173=ADVANCED_FACE($,(#57,#58),#40,.T.);
#174=ADVANCED_FACE($,(#69,#59),#162,.T.);
#175=ADVANCED_FACE($,(#60,#61),#41,.F.);
#176=CLOSED_SHELL($,(#163,#164,#165,#166,#167,#168,#169,#170,#171));
#177=CLOSED_SHELL($,(#172,#173,#174,#175));
#178=MANIFOLD_SOLID_BREP('Volumenk\X\F6rper1',#176);
#179=MANIFOLD_SOLID_BREP('Volumenk\X\F6rper1',#177);
#180=AXIS2_PLACEMENT_3D('placement',#270,#210,#211);
#181=AXIS2_PLACEMENT_3D($,#271,#212,#213);
#182=AXIS2_PLACEMENT_3D($,#342,#214,#215);
#183=AXIS2_PLACEMENT_3D($,#344,#216,#217);
#184=AXIS2_PLACEMENT_3D($,#346,#218,#219);
#185=AXIS2_PLACEMENT_3D($,#347,#220,#221);
#186=AXIS2_PLACEMENT_3D($,#349,#222,#223);
#187=AXIS2_PLACEMENT_3D($,#350,#224,#225);
#188=AXIS2_PLACEMENT_3D($,#352,#226,#227);
#189=AXIS2_PLACEMENT_3D($,#353,#228,#229);
#190=AXIS2_PLACEMENT_3D($,#355,#230,#231);
#191=AXIS2_PLACEMENT_3D($,#356,#232,#233);
#192=AXIS2_PLACEMENT_3D($,#358,#234,#235);
#193=AXIS2_PLACEMENT_3D($,#359,#236,#237);
#194=AXIS2_PLACEMENT_3D($,#361,#238,#239);
#195=AXIS2_PLACEMENT_3D($,#362,#240,#241);
#196=AXIS2_PLACEMENT_3D($,#364,#242,#243);
#197=AXIS2_PLACEMENT_3D($,#365,#244,#245);
#198=AXIS2_PLACEMENT_3D('placement',#366,#246,#247);
#199=AXIS2_PLACEMENT_3D($,#367,#248,#249);
#200=AXIS2_PLACEMENT_3D($,#369,#250,#251);
#201=AXIS2_PLACEMENT_3D($,#371,#252,#253);
#202=AXIS2_PLACEMENT_3D($,#372,#254,#255);
#203=AXIS2_PLACEMENT_3D($,#374,#256,#257);
#204=AXIS2_PLACEMENT_3D($,#375,#258,#259);
#205=AXIS2_PLACEMENT_3D($,#377,#260,#261);
#206=AXIS2_PLACEMENT_3D($,#378,#262,#263);
#207=AXIS2_PLACEMENT_3D('placement',#379,#264,#265);
#208=AXIS2_PLACEMENT_3D($,#380,#266,#267);
#209=AXIS2_PLACEMENT_3D($,#381,#268,#269);
#210=DIRECTION('axis',(0.,0.,1.));
#211=DIRECTION('refdir',(1.,0.,0.));
#212=DIRECTION('center_axis',(0.,-1.,0.));
#213=DIRECTION('ref_axis',(1.,0.,0.));
#214=DIRECTION('center_axis',(-1.,0.,0.));
#215=DIRECTION('ref_axis',(0.,0.,1.));
#216=DIRECTION('center_axis',(1.,0.,0.));
#217=DIRECTION('ref_axis',(0.,1.,0.));
#218=DIRECTION('center_axis',(1.,0.,0.));
#219=DIRECTION('ref_axis',(0.,1.,0.));
#220=DIRECTION('center_axis',(1.,0.,0.));
#221=DIRECTION('ref_axis',(0.,1.,0.));
#222=DIRECTION('center_axis',(1.,0.,0.));
#223=DIRECTION('ref_axis',(0.,1.,0.));
#224=DIRECTION('center_axis',(1.,0.,0.));
#225=DIRECTION('ref_axis',(0.,1.,0.));
#226=DIRECTION('center_axis',(1.,0.,0.));
#227=DIRECTION('ref_axis',(0.,1.,0.));
#228=DIRECTION('center_axis',(1.,0.,0.));
#229=DIRECTION('ref_axis',(0.,1.,0.));
#230=DIRECTION('center_axis',(1.,0.,0.));
#231=DIRECTION('ref_axis',(0.,1.,0.));
#232=DIRECTION('center_axis',(-1.,0.,0.));
#233=DIRECTION('ref_axis',(0.,1.,0.));
#234=DIRECTION('center_axis',(1.,0.,0.));
#235=DIRECTION('ref_axis',(0.,1.,0.));
#236=DIRECTION('center_axis',(1.,0.,0.));
#237=DIRECTION('ref_axis',(0.,1.,0.));
#238=DIRECTION('center_axis',(1.,0.,0.));
#239=DIRECTION('ref_axis',(0.,1.,0.));
#240=DIRECTION('center_axis',(1.,0.,0.));
#241=DIRECTION('ref_axis',(0.,0.,-1.));
#242=DIRECTION('center_axis',(1.,0.,0.));
#243=DIRECTION('ref_axis',(0.,1.,0.));
#244=DIRECTION('center_axis',(1.,0.,0.));
#245=DIRECTION('ref_axis',(0.,1.,0.));
#246=DIRECTION('axis',(0.,0.,1.));
#247=DIRECTION('refdir',(1.,0.,0.));
#248=DIRECTION('center_axis',(0.,0.,1.));
#249=DIRECTION('ref_axis',(-1.,0.,0.));
#250=DIRECTION('center_axis',(0.,0.,1.));
#251=DIRECTION('ref_axis',(-1.,0.,0.));
#252=DIRECTION('center_axis',(0.,0.,-1.));
#253=DIRECTION('ref_axis',(-1.,0.,0.));
#254=DIRECTION('center_axis',(0.,0.,-1.));
#255=DIRECTION('ref_axis',(-1.,0.,0.));
#256=DIRECTION('center_axis',(0.,0.,1.));
#257=DIRECTION('ref_axis',(-1.,0.,0.));
#258=DIRECTION('center_axis',(0.,0.,1.));
#259=DIRECTION('ref_axis',(-1.,0.,0.));
#260=DIRECTION('center_axis',(0.,0.,-1.));
#261=DIRECTION('ref_axis',(-1.,0.,0.));
#262=DIRECTION('center_axis',(0.,0.,-1.));
#263=DIRECTION('ref_axis',(-1.,0.,0.));
#264=DIRECTION('axis',(0.,0.,1.));
#265=DIRECTION('refdir',(1.,0.,0.));
#266=DIRECTION($,(0.,0.,1.));
#267=DIRECTION($,(1.,0.,0.));
#268=DIRECTION($,(-1.,0.,0.));
#269=DIRECTION($,(0.,0.,1.));
#270=CARTESIAN_POINT('',(0.,0.,0.));
#271=CARTESIAN_POINT('Origin',(-40.,0.,1.5));
#272=CARTESIAN_POINT('',(-40.,-44.497190922574,-0.500000000000001));
#273=CARTESIAN_POINT('Ctrl Pts',(-40.,-44.497190922574,-0.500000000000001));
#274=CARTESIAN_POINT('Ctrl Pts',(-40.2511385658602,-44.497190922574,-0.500000000000001));
#275=CARTESIAN_POINT('Ctrl Pts',(-40.5190137957895,-44.4978436648564,-0.449807309476999));
#276=CARTESIAN_POINT('Ctrl Pts',(-41.0117898693242,-44.4994388488641,-0.245681851496758));
#277=CARTESIAN_POINT('Ctrl Pts',(-41.2366911422705,-44.5002597720531,-0.0917491889563201));
#278=CARTESIAN_POINT('Ctrl Pts',(-41.591858581979,-44.499574613537,0.263444668920522));
#279=CARTESIAN_POINT('Ctrl Pts',(-41.7457793957833,-44.4980022553262,0.488382137492268));
#280=CARTESIAN_POINT('Ctrl Pts',(-41.9498492370278,-44.4898647409184,0.981150937563971));
#281=CARTESIAN_POINT('Ctrl Pts',(-42.,-44.4831780908987,1.24897953650403));
#282=CARTESIAN_POINT('Ctrl Pts',(-42.,-44.466235757703,1.75131646187693));
#283=CARTESIAN_POINT('Ctrl Pts',(-41.9497434274732,-44.4548465618842,2.01928171375361));
#284=CARTESIAN_POINT('Ctrl Pts',(-41.7454958194413,-44.4297210078292,2.51212512574499));
#285=CARTESIAN_POINT('Ctrl Pts',(-41.5915086141838,-44.4161056147854,2.73701103266012));
#286=CARTESIAN_POINT('Ctrl Pts',(-41.2363866248364,-44.3928085655394,3.09194789275142));
#287=CARTESIAN_POINT('Ctrl Pts',(-41.0116205160626,-44.381589364665,3.24576518274433));
#288=CARTESIAN_POINT('Ctrl Pts',(-40.5190143695156,-44.3661964596986,3.44979388822873));
#289=CARTESIAN_POINT('Ctrl Pts',(-40.2511682908514,-44.3621460256377,3.5));
#290=CARTESIAN_POINT('Ctrl Pts',(-39.7488317091486,-44.3621460256377,3.5));
#291=CARTESIAN_POINT('Ctrl Pts',(-39.4809856304844,-44.3661964596986,3.44979388822873));
#292=CARTESIAN_POINT('Ctrl Pts',(-38.9883794839375,-44.381589364665,3.24576518274433));
#293=CARTESIAN_POINT('Ctrl Pts',(-38.7636133751636,-44.3928085655394,3.09194789275142));
#294=CARTESIAN_POINT('Ctrl Pts',(-38.4084913858162,-44.4161056147854,2.73701103266012));
#295=CARTESIAN_POINT('Ctrl Pts',(-38.2545041805587,-44.4297210078292,2.51212512574499));
#296=CARTESIAN_POINT('Ctrl Pts',(-38.0502565725269,-44.4548465618842,2.01928171375361));
#297=CARTESIAN_POINT('Ctrl Pts',(-38.,-44.466235757703,1.75131646187693));
#298=CARTESIAN_POINT('Ctrl Pts',(-38.,-44.4831780908987,1.24897953650404));
#299=CARTESIAN_POINT('Ctrl Pts',(-38.0501507629722,-44.4898647409184,0.981150937563973));
#300=CARTESIAN_POINT('Ctrl Pts',(-38.2542206042167,-44.4980022553262,0.48838213749227));
#301=CARTESIAN_POINT('Ctrl Pts',(-38.408141418021,-44.499574613537,0.263444668920522));
#302=CARTESIAN_POINT('Ctrl Pts',(-38.7633088577296,-44.5002597720531,-0.0917491889563201));
#303=CARTESIAN_POINT('Ctrl Pts',(-38.9882101306758,-44.4994388488641,-0.24568185149676));
#304=CARTESIAN_POINT('Ctrl Pts',(-39.4809862042105,-44.4978436648564,-0.449807309477001));
#305=CARTESIAN_POINT('Ctrl Pts',(-39.7488614341398,-44.497190922574,-0.500000000000001));
#306=CARTESIAN_POINT('Ctrl Pts',(-40.,-44.497190922574,-0.500000000000001));
#307=CARTESIAN_POINT('',(-40.,-38.2467318865286,-0.500000000000001));
#308=CARTESIAN_POINT('Ctrl Pts',(-40.,-38.2467318865286,-0.500000000000001));
#309=CARTESIAN_POINT('Ctrl Pts',(-39.7488564481728,-38.2467318865286,-0.500000000000001));
#310=CARTESIAN_POINT('Ctrl Pts',(-39.4809769216631,-38.2474913350358,-0.449805395806171));
#311=CARTESIAN_POINT('Ctrl Pts',(-38.98819468492,-38.2493472210461,-0.245673521723796));
#312=CARTESIAN_POINT('Ctrl Pts',(-38.7632913935438,-38.2503022763269,-0.0917363938261402));
#313=CARTESIAN_POINT('Ctrl Pts',(-38.4081155277028,-38.2495049506969,0.263475232628237));
#314=CARTESIAN_POINT('Ctrl Pts',(-38.2541944381009,-38.2476753165785,0.488427525198129));
#315=CARTESIAN_POINT('Ctrl Pts',(-38.0501378499575,-38.2382070093676,0.981199917902019));
#316=CARTESIAN_POINT('Ctrl Pts',(-38.,-38.2304269930236,1.24901631835121));
#317=CARTESIAN_POINT('Ctrl Pts',(-38.,-38.2107111097701,1.75138460662554));
#318=CARTESIAN_POINT('Ctrl Pts',(-38.050281183563,-38.1974544252511,2.01938613096382));
#319=CARTESIAN_POINT('Ctrl Pts',(-38.2545785697995,-38.1682066222899,2.51225957143608));
#320=CARTESIAN_POINT('Ctrl Pts',(-38.4085895755757,-38.1523560139217,2.7371419696798));
#321=CARTESIAN_POINT('Ctrl Pts',(-38.7637037963996,-38.1252359768129,3.09200549567667));
#322=CARTESIAN_POINT('Ctrl Pts',(-38.9884239704965,-38.1121746361386,3.24578632908273));
#323=CARTESIAN_POINT('Ctrl Pts',(-39.4809759826065,-38.0942509164453,3.44978717126049));
#324=CARTESIAN_POINT('Ctrl Pts',(-39.7488160291559,-38.0895326828776,3.5));
#325=CARTESIAN_POINT('Ctrl Pts',(-40.2511839708441,-38.0895326828776,3.5));
#326=CARTESIAN_POINT('Ctrl Pts',(-40.5190240173935,-38.0942509164453,3.44978717126049));
#327=CARTESIAN_POINT('Ctrl Pts',(-41.0115760295035,-38.1121746361386,3.24578632908273));
#328=CARTESIAN_POINT('Ctrl Pts',(-41.2362962036004,-38.1252359768129,3.09200549567666));
#329=CARTESIAN_POINT('Ctrl Pts',(-41.5914104244243,-38.1523560139217,2.7371419696798));
#330=CARTESIAN_POINT('Ctrl Pts',(-41.7454214302005,-38.1682066222899,2.51225957143608));
#331=CARTESIAN_POINT('Ctrl Pts',(-41.949718816437,-38.1974544252511,2.01938613096381));
#332=CARTESIAN_POINT('Ctrl Pts',(-42.,-38.2107111097701,1.75138460662554));
#333=CARTESIAN_POINT('Ctrl Pts',(-42.,-38.2304269930236,1.24901631835121));
#334=CARTESIAN_POINT('Ctrl Pts',(-41.9498621500425,-38.2382070093676,0.981199917902025));
#335=CARTESIAN_POINT('Ctrl Pts',(-41.7458055618991,-38.2476753165785,0.488427525198133));
#336=CARTESIAN_POINT('Ctrl Pts',(-41.5918844722972,-38.2495049506969,0.263475232628237));
#337=CARTESIAN_POINT('Ctrl Pts',(-41.2367086064562,-38.2503022763269,-0.0917363938261419));
#338=CARTESIAN_POINT('Ctrl Pts',(-41.01180531508,-38.2493472210461,-0.245673521723802));
#339=CARTESIAN_POINT('Ctrl Pts',(-40.5190230783369,-38.2474913350358,-0.449805395806173));
#340=CARTESIAN_POINT('Ctrl Pts',(-40.2511435518272,-38.2467318865286,-0.500000000000002));
#341=CARTESIAN_POINT('Ctrl Pts',(-40.,-38.2467318865286,-0.500000000000002));
#342=CARTESIAN_POINT('Origin',(-60.,39.625,0.));
#343=CARTESIAN_POINT('',(-60.,41.,0.));
#344=CARTESIAN_POINT('Origin',(-60.,0.,0.));
#345=CARTESIAN_POINT('',(-60.,38.25,0.));
#346=CARTESIAN_POINT('Origin',(-60.,0.,0.));
#347=CARTESIAN_POINT('Origin',(-55.,0.,0.));
#348=CARTESIAN_POINT('',(-50.,41.,0.));
#349=CARTESIAN_POINT('Origin',(-50.,0.,0.));
#350=CARTESIAN_POINT('Origin',(-48.25,0.,0.));
#351=CARTESIAN_POINT('',(-46.5,44.5,0.));
#352=CARTESIAN_POINT('Origin',(-46.5,0.,0.));
#353=CARTESIAN_POINT('Origin',(-1.77635683940025E-014,0.,0.));
#354=CARTESIAN_POINT('',(46.5,44.5,0.));
#355=CARTESIAN_POINT('Origin',(46.5,0.,0.));
#356=CARTESIAN_POINT('Origin',(48.25,0.,0.));
#357=CARTESIAN_POINT('',(50.,41.,0.));
#358=CARTESIAN_POINT('Origin',(50.,0.,0.));
#359=CARTESIAN_POINT('Origin',(55.,0.,0.));
#360=CARTESIAN_POINT('',(60.,41.,0.));
#361=CARTESIAN_POINT('Origin',(60.,0.,0.));
#362=CARTESIAN_POINT('Origin',(60.,39.625,0.));
#363=CARTESIAN_POINT('',(60.,38.25,0.));
#364=CARTESIAN_POINT('Origin',(60.,0.,0.));
#365=CARTESIAN_POINT('Origin',(0.,0.,0.));
#366=CARTESIAN_POINT('',(0.,0.,0.));
#367=CARTESIAN_POINT('Origin',(0.,0.,0.));
#368=CARTESIAN_POINT('',(36.05,4.41485171092621E-015,-225.));
#369=CARTESIAN_POINT('Origin',(0.,0.,-225.));
#370=CARTESIAN_POINT('',(36.05,4.41485171092621E-015,225.));
#371=CARTESIAN_POINT('Origin',(0.,0.,225.));
#372=CARTESIAN_POINT('Origin',(0.,0.,-225.));
#373=CARTESIAN_POINT('',(38.05,4.65978107075568E-015,-225.));
#374=CARTESIAN_POINT('Origin',(0.,0.,-225.));
#375=CARTESIAN_POINT('Origin',(0.,0.,0.));
#376=CARTESIAN_POINT('',(38.05,4.65978107075568E-015,225.));
#377=CARTESIAN_POINT('Origin',(0.,0.,225.));
#378=CARTESIAN_POINT('Origin',(0.,0.,225.));
#379=CARTESIAN_POINT('',(0.,0.,0.));
#380=CARTESIAN_POINT($,(0.,0.,0.));
#381=CARTESIAN_POINT($,(0.,0.,0.));
#382=UNCERTAINTY_MEASURE_WITH_UNIT(LENGTH_MEASURE(0.01),#388,
'DISTANCE_ACCURACY_VALUE',
'Maximum model space distance between geometric entities at asserted c
onnectivities');
#383=UNCERTAINTY_MEASURE_WITH_UNIT(LENGTH_MEASURE(0.01),#388,
'DISTANCE_ACCURACY_VALUE',
'Maximum model space distance between geometric entities at asserted c
onnectivities');
#384=UNCERTAINTY_MEASURE_WITH_UNIT(LENGTH_MEASURE(0.01),#388,
'DISTANCE_ACCURACY_VALUE',
'Maximum model space distance between geometric entities at asserted c
onnectivities');
#385=(
GEOMETRIC_REPRESENTATION_CONTEXT(3)
GLOBAL_UNCERTAINTY_ASSIGNED_CONTEXT((#382))
GLOBAL_UNIT_ASSIGNED_CONTEXT((#388,#391,#389))
REPRESENTATION_CONTEXT('','3D')
);
#386=(
GEOMETRIC_REPRESENTATION_CONTEXT(3)
GLOBAL_UNCERTAINTY_ASSIGNED_CONTEXT((#383))
GLOBAL_UNIT_ASSIGNED_CONTEXT((#388,#391,#389))
REPRESENTATION_CONTEXT('','3D')
);
#387=(
GEOMETRIC_REPRESENTATION_CONTEXT(3)
GLOBAL_UNCERTAINTY_ASSIGNED_CONTEXT((#384))
GLOBAL_UNIT_ASSIGNED_CONTEXT((#388,#391,#389))
REPRESENTATION_CONTEXT('','3D')
);
#388=(
LENGTH_UNIT()
NAMED_UNIT(*)
SI_UNIT(.MILLI.,.METRE.)
);
#389=(
NAMED_UNIT(*)
SI_UNIT($,.STERADIAN.)
SOLID_ANGLE_UNIT()
);
#390=DIMENSIONAL_EXPONENTS(0.,0.,0.,0.,0.,0.,0.);
#391=(
CONVERSION_BASED_UNIT('degree',#393)
NAMED_UNIT(#390)
PLANE_ANGLE_UNIT()
);
#392=(
NAMED_UNIT(*)
PLANE_ANGLE_UNIT()
SI_UNIT($,.RADIAN.)
);
#393=PLANE_ANGLE_MEASURE_WITH_UNIT(PLANE_ANGLE_MEASURE(0.01745329252),#392);
#394=SHAPE_DEFINITION_REPRESENTATION(#397,#402);
#395=SHAPE_DEFINITION_REPRESENTATION(#398,#403);
#396=SHAPE_DEFINITION_REPRESENTATION(#399,#404);
#397=PRODUCT_DEFINITION_SHAPE('',$,#406);
#398=PRODUCT_DEFINITION_SHAPE('',$,#407);
#399=PRODUCT_DEFINITION_SHAPE('',$,#408);
#400=PRODUCT_DEFINITION_SHAPE($,$,#16);
#401=PRODUCT_DEFINITION_SHAPE($,$,#17);
#402=SHAPE_REPRESENTATION('',(#180),#385);
#403=SHAPE_REPRESENTATION('',(#198),#386);
#404=SHAPE_REPRESENTATION('',(#207,#208,#209),#387);
#405=PRODUCT_DEFINITION_CONTEXT('3D Mechanical Parts',#413,'design');
#406=PRODUCT_DEFINITION('102555','102555',#409,#405);
#407=PRODUCT_DEFINITION('100115','100115',#410,#405);
#408=PRODUCT_DEFINITION('90987','90987',#411,#405);
#409=PRODUCT_DEFINITION_FORMATION('',$,#415);
#410=PRODUCT_DEFINITION_FORMATION('',$,#416);
#411=PRODUCT_DEFINITION_FORMATION('',$,#417);
#412=APPLICATION_PROTOCOL_DEFINITION('international standard',
'automotive_design',2009,#413);
#413=APPLICATION_CONTEXT(
'Core Data for Automotive Mechanical Design Process');
#414=PRODUCT_CONTEXT('3D Mechanical Parts',#413,'mechanical');
#415=PRODUCT('102555','102555',$,(#414));
#416=PRODUCT('100115','100115',$,(#414));
#417=PRODUCT('90987','90987',$,(#414));
#418=PRESENTATION_STYLE_ASSIGNMENT((#420));
#419=PRESENTATION_STYLE_ASSIGNMENT((#421));
#420=SURFACE_STYLE_USAGE(.BOTH.,#422);
#421=SURFACE_STYLE_USAGE(.BOTH.,#423);
#422=SURFACE_SIDE_STYLE($,(#424));
#423=SURFACE_SIDE_STYLE($,(#425));
#424=SURFACE_STYLE_FILL_AREA(#426);
#425=SURFACE_STYLE_FILL_AREA(#427);
#426=FILL_AREA_STYLE($,(#428));
#427=FILL_AREA_STYLE($,(#429));
#428=FILL_AREA_STYLE_COLOUR($,#430);
#429=FILL_AREA_STYLE_COLOUR($,#431);
#430=COLOUR_RGB('',0.949019607843137,0.92156862745098,0.929411764705882);
#431=COLOUR_RGB('',1.,1.,1.);
ENDSEC;
END-ISO-10303-21;
