ISO-10303-21;
HEADER;
/****************************************************************
 * Generated by software with PDE/Lib inside                    *
 * PDElib Version v51a, created Thu 12/14/2006                  *
 * International Technegroup Inc. (www.iti-oh.com)              *
 ****************************************************************/
FILE_DESCRIPTION((''),'2;1');
FILE_NAME('T:\\Arbeitspl\S\dtze\\Aushilfe\\KPeters\\3D\\Steps 08_10\\12700\\12700025X.stp','2010-08-05T13:16:34',('thilbrands'),(''),'Autodesk Inventor 2008','Autodesk Inventor 2008','');
FILE_SCHEMA(('AUTOMOTIVE_DESIGN { 1 0 10303 214 1 1 1 1 }'));
ENDSEC;
DATA;
#5=APPLICATION_CONTEXT('automotive design');
#6=APPLICATION_PROTOCOL_DEFINITION('International Standard','automotive_design',2001,#5);
#7=PRODUCT_CONTEXT('',#5,'mechanical');
#8=PRODUCT('127000101','127000101',$,(#7));
#9=PRODUCT_RELATED_PRODUCT_CATEGORY('part',$,(#8));
#10=PRODUCT_DEFINITION_FORMATION('',$,#8);
#11=PRODUCT_DEFINITION_CONTEXT('part definition',#5,'design');
#12=PRODUCT_DEFINITION('',$,#10,#11);
#18=(NAMED_UNIT(*)PLANE_ANGLE_UNIT()SI_UNIT($,.RADIAN.));
#19=DIMENSIONAL_EXPONENTS(0.0,0.0,0.0,0.0,0.0,0.0,0.0);
#20=PLANE_ANGLE_MEASURE_WITH_UNIT(PLANE_ANGLE_MEASURE(0.017453292500000),#18);
#24=(CONVERSION_BASED_UNIT('DEGREE',#20)NAMED_UNIT(#19)PLANE_ANGLE_UNIT());
#28=(NAMED_UNIT(*)SI_UNIT($,.STERADIAN.)SOLID_ANGLE_UNIT());
#32=(LENGTH_UNIT()NAMED_UNIT(*)SI_UNIT(.MILLI.,.METRE.));
#34=UNCERTAINTY_MEASURE_WITH_UNIT(LENGTH_MEASURE(0.010000000000000),#32,'DISTANCE_ACCURACY_VALUE','');
#36=(GEOMETRIC_REPRESENTATION_CONTEXT(3)GLOBAL_UNCERTAINTY_ASSIGNED_CONTEXT((#34))GLOBAL_UNIT_ASSIGNED_CONTEXT((#24,#28,#32))REPRESENTATION_CONTEXT('None','None'));
#37=AXIS2_PLACEMENT_3D('',#38,#39,#40);
#38=CARTESIAN_POINT('',(0.0,0.0,0.0));
#39=DIRECTION('',(0.0,0.0,1.0));
#40=DIRECTION('',(1.0,0.0,0.0));
#41=SHAPE_REPRESENTATION('',(#37),#36);
#42=PRODUCT_DEFINITION_SHAPE('','',#12);
#43=SHAPE_DEFINITION_REPRESENTATION(#42,#41);
#49=(NAMED_UNIT(*)PLANE_ANGLE_UNIT()SI_UNIT($,.RADIAN.));
#50=DIMENSIONAL_EXPONENTS(0.0,0.0,0.0,0.0,0.0,0.0,0.0);
#51=PLANE_ANGLE_MEASURE_WITH_UNIT(PLANE_ANGLE_MEASURE(0.017453292500000),#49);
#55=(CONVERSION_BASED_UNIT('DEGREE',#51)NAMED_UNIT(#50)PLANE_ANGLE_UNIT());
#59=(NAMED_UNIT(*)SI_UNIT($,.STERADIAN.)SOLID_ANGLE_UNIT());
#63=(LENGTH_UNIT()NAMED_UNIT(*)SI_UNIT(.MILLI.,.METRE.));
#65=UNCERTAINTY_MEASURE_WITH_UNIT(LENGTH_MEASURE(0.000001000000000),#63,'DISTANCE_ACCURACY_VALUE','');
#67=(GEOMETRIC_REPRESENTATION_CONTEXT(3)GLOBAL_UNCERTAINTY_ASSIGNED_CONTEXT((#65))GLOBAL_UNIT_ASSIGNED_CONTEXT((#55,#59,#63))REPRESENTATION_CONTEXT('','3D'));
#68=CARTESIAN_POINT('',(0.723513656982614,0.0,0.0));
#69=DIRECTION('',(1.0,0.0,0.0));
#70=DIRECTION('',(0.0,0.0,1.0));
#71=AXIS2_PLACEMENT_3D('',#68,#69,#70);
#72=CONICAL_SURFACE('',#71,15.762250000000002,49.999999999999964);
#73=CARTESIAN_POINT('',(3.330669E-015,0.0,14.900000000000002));
#74=VERTEX_POINT('',#73);
#75=CARTESIAN_POINT('',(2.914335E-015,0.0,0.0));
#76=DIRECTION('',(-1.0,0.0,0.0));
#77=DIRECTION('',(0.0,0.0,1.0));
#78=AXIS2_PLACEMENT_3D('',#75,#76,#77);
#79=CIRCLE('',#78,14.900000000000002);
#80=EDGE_CURVE('',#74,#74,#79,.T.);
#81=ORIENTED_EDGE('',*,*,#80,.F.);
#82=EDGE_LOOP('',(#81));
#83=FACE_OUTER_BOUND('',#82,.T.);
#84=CARTESIAN_POINT('',(1.447027313965225,0.0,16.624500000000001));
#85=VERTEX_POINT('',#84);
#86=CARTESIAN_POINT('',(1.447027313965226,0.0,0.0));
#87=DIRECTION('',(1.0,0.0,0.0));
#88=DIRECTION('',(0.0,-1.0,0.0));
#89=AXIS2_PLACEMENT_3D('',#86,#87,#88);
#90=CIRCLE('',#89,16.624500000000001);
#91=EDGE_CURVE('',#85,#85,#90,.T.);
#92=ORIENTED_EDGE('',*,*,#91,.F.);
#93=EDGE_LOOP('',(#92));
#94=FACE_BOUND('',#93,.T.);
#95=ADVANCED_FACE('',(#83,#94),#72,.T.);
#96=CARTESIAN_POINT('',(16.276486343017385,0.0,0.0));
#97=DIRECTION('',(-1.0,0.0,0.0));
#98=DIRECTION('',(0.0,0.0,1.0));
#99=AXIS2_PLACEMENT_3D('',#96,#97,#98);
#100=CONICAL_SURFACE('',#99,15.762250000000002,49.999999999999964);
#101=CARTESIAN_POINT('',(15.552972686034776,0.0,16.624500000000001));
#102=VERTEX_POINT('',#101);
#103=CARTESIAN_POINT('',(15.552972686034776,0.0,0.0));
#104=DIRECTION('',(-1.0,0.0,0.0));
#105=DIRECTION('',(0.0,-1.0,0.0));
#106=AXIS2_PLACEMENT_3D('',#103,#104,#105);
#107=CIRCLE('',#106,16.624500000000001);
#108=EDGE_CURVE('',#102,#102,#107,.T.);
#109=ORIENTED_EDGE('',*,*,#108,.F.);
#110=EDGE_LOOP('',(#109));
#111=FACE_OUTER_BOUND('',#110,.T.);
#112=CARTESIAN_POINT('',(17.0,-14.900000000000002,0.0));
#113=VERTEX_POINT('',#112);
#114=CARTESIAN_POINT('',(17.0,0.0,0.0));
#115=DIRECTION('',(-1.0,0.0,0.0));
#116=DIRECTION('',(0.0,-1.0,0.0));
#117=AXIS2_PLACEMENT_3D('',#114,#115,#116);
#118=CIRCLE('',#117,14.900000000000002);
#119=EDGE_CURVE('',#113,#113,#118,.T.);
#120=ORIENTED_EDGE('',*,*,#119,.T.);
#121=EDGE_LOOP('',(#120));
#122=FACE_BOUND('',#121,.T.);
#123=ADVANCED_FACE('',(#111,#122),#100,.T.);
#124=CARTESIAN_POINT('',(33.0,-15.000000000000007,9.013878188659968));
#125=CARTESIAN_POINT('',(33.0,-15.000000000000007,-9.013878188659968));
#126=CARTESIAN_POINT('',(22.999999999999993,-15.000000000000002,9.013878188659968));
#127=CARTESIAN_POINT('',(22.999999999999993,-15.0,-9.013878188659968));
#128=B_SPLINE_SURFACE_WITH_KNOTS('',1,1,((#124,#126),(#125,#127)),.UNSPECIFIED.,.F.,.F.,.U.,(2,2),(2,2),(0.0,18.027756377319935),(0.0,10.000000000000007),.UNSPECIFIED.);
#129=CARTESIAN_POINT('',(22.999999999999993,-15.000000000000002,9.013878188659968));
#130=VERTEX_POINT('',#129);
#131=CARTESIAN_POINT('',(33.0,-15.000000000000007,9.013878188659961));
#132=VERTEX_POINT('',#131);
#133=CARTESIAN_POINT('',(22.999999999999993,-15.000000000000002,9.013878188659968));
#134=DIRECTION('',(1.0,0.0,0.0));
#135=VECTOR('',#134,10.000000000000007);
#136=LINE('',#133,#135);
#137=EDGE_CURVE('',#130,#132,#136,.T.);
#138=ORIENTED_EDGE('',*,*,#137,.F.);
#139=CARTESIAN_POINT('',(22.999999999999993,-15.000000000000002,-9.013878188659968));
#140=VERTEX_POINT('',#139);
#141=CARTESIAN_POINT('',(22.999999999999993,-15.000000000000002,-9.013878188659968));
#142=DIRECTION('',(0.0,0.0,1.0));
#143=VECTOR('',#142,18.027756377319935);
#144=LINE('',#141,#143);
#145=EDGE_CURVE('',#140,#130,#144,.T.);
#146=ORIENTED_EDGE('',*,*,#145,.F.);
#147=CARTESIAN_POINT('',(33.0,-15.000000000000007,-9.013878188659961));
#148=VERTEX_POINT('',#147);
#149=CARTESIAN_POINT('',(33.0,-15.000000000000007,-9.013878188659961));
#150=DIRECTION('',(-1.0,0.0,0.0));
#151=VECTOR('',#150,10.000000000000007);
#152=LINE('',#149,#151);
#153=EDGE_CURVE('',#148,#140,#152,.T.);
#154=ORIENTED_EDGE('',*,*,#153,.F.);
#155=CARTESIAN_POINT('',(33.0,-15.000000000000007,-9.013878188659961));
#156=DIRECTION('',(0.0,0.0,1.0));
#157=VECTOR('',#156,18.027756377319921);
#158=LINE('',#155,#157);
#159=EDGE_CURVE('',#148,#132,#158,.T.);
#160=ORIENTED_EDGE('',*,*,#159,.T.);
#161=EDGE_LOOP('',(#138,#146,#154,#160));
#162=FACE_OUTER_BOUND('',#161,.T.);
#163=ADVANCED_FACE('',(#162),#128,.F.);
#164=CARTESIAN_POINT('',(22.999999999999993,-17.500000000000000,-9.013878188659970));
#165=CARTESIAN_POINT('',(22.999999999999993,-17.500000000000000,9.013878188659970));
#166=CARTESIAN_POINT('',(22.999999999999993,-15.000000000000002,-9.013878188659970));
#167=CARTESIAN_POINT('',(22.999999999999993,-15.0,9.013878188659970));
#168=B_SPLINE_SURFACE_WITH_KNOTS('',1,1,((#164,#166),(#165,#167)),.UNSPECIFIED.,.F.,.F.,.U.,(2,2),(2,2),(0.0,18.027756377319939),(0.0,2.499999999999998),.UNSPECIFIED.);
#169=CARTESIAN_POINT('',(22.999999999999993,0.0,0.0));
#170=DIRECTION('',(-1.0,0.0,0.0));
#171=DIRECTION('',(0.0,-1.0,0.0));
#172=AXIS2_PLACEMENT_3D('',#169,#170,#171);
#173=CIRCLE('',#172,17.500000000000000);
#174=EDGE_CURVE('',#140,#130,#173,.T.);
#175=ORIENTED_EDGE('',*,*,#174,.F.);
#176=ORIENTED_EDGE('',*,*,#145,.T.);
#177=EDGE_LOOP('',(#175,#176));
#178=FACE_OUTER_BOUND('',#177,.T.);
#179=ADVANCED_FACE('',(#178),#168,.F.);
#180=CARTESIAN_POINT('',(33.0,-17.500000000000000,9.013878188659961));
#181=CARTESIAN_POINT('',(33.0,-17.500000000000000,-9.013878188659961));
#182=CARTESIAN_POINT('',(33.0,-15.000000000000007,9.013878188659961));
#183=CARTESIAN_POINT('',(33.0,-15.000000000000007,-9.013878188659961));
#184=B_SPLINE_SURFACE_WITH_KNOTS('',1,1,((#180,#182),(#181,#183)),.UNSPECIFIED.,.F.,.F.,.U.,(2,2),(2,2),(0.0,18.027756377319921),(0.0,2.499999999999993),.UNSPECIFIED.);
#185=CARTESIAN_POINT('',(33.0,0.0,0.0));
#186=DIRECTION('',(1.0,0.0,0.0));
#187=DIRECTION('',(0.0,-1.0,0.0));
#188=AXIS2_PLACEMENT_3D('',#185,#186,#187);
#189=CIRCLE('',#188,17.500000000000000);
#190=EDGE_CURVE('',#132,#148,#189,.T.);
#191=ORIENTED_EDGE('',*,*,#190,.F.);
#192=ORIENTED_EDGE('',*,*,#159,.F.);
#193=EDGE_LOOP('',(#191,#192));
#194=FACE_OUTER_BOUND('',#193,.T.);
#195=ADVANCED_FACE('',(#194),#184,.F.);
#196=CARTESIAN_POINT('',(33.0,15.000000000000007,0.0));
#197=DIRECTION('',(0.0,-1.0,0.0));
#198=DIRECTION('',(0.0,0.0,-1.0));
#199=AXIS2_PLACEMENT_3D('',#196,#197,#198);
#200=PLANE('',#199);
#201=CARTESIAN_POINT('',(33.0,15.000000000000007,9.013878188659961));
#202=VERTEX_POINT('',#201);
#203=CARTESIAN_POINT('',(22.999999999999993,15.000000000000002,9.013878188659968));
#204=VERTEX_POINT('',#203);
#205=CARTESIAN_POINT('',(33.0,15.000000000000007,9.013878188659961));
#206=DIRECTION('',(-1.0,0.0,0.0));
#207=VECTOR('',#206,10.000000000000007);
#208=LINE('',#205,#207);
#209=EDGE_CURVE('',#202,#204,#208,.T.);
#210=ORIENTED_EDGE('',*,*,#209,.F.);
#211=CARTESIAN_POINT('',(33.0,15.000000000000007,-9.013878188659961));
#212=VERTEX_POINT('',#211);
#213=CARTESIAN_POINT('',(33.0,15.000000000000007,-9.013878188659961));
#214=DIRECTION('',(0.0,0.0,1.0));
#215=VECTOR('',#214,18.027756377319921);
#216=LINE('',#213,#215);
#217=EDGE_CURVE('',#212,#202,#216,.T.);
#218=ORIENTED_EDGE('',*,*,#217,.F.);
#219=CARTESIAN_POINT('',(22.999999999999993,15.000000000000002,-9.013878188659968));
#220=VERTEX_POINT('',#219);
#221=CARTESIAN_POINT('',(22.999999999999993,15.000000000000002,-9.013878188659968));
#222=DIRECTION('',(1.0,0.0,0.0));
#223=VECTOR('',#222,10.000000000000007);
#224=LINE('',#221,#223);
#225=EDGE_CURVE('',#220,#212,#224,.T.);
#226=ORIENTED_EDGE('',*,*,#225,.F.);
#227=CARTESIAN_POINT('',(22.999999999999993,15.000000000000002,-9.013878188659968));
#228=DIRECTION('',(0.0,0.0,1.0));
#229=VECTOR('',#228,18.027756377319935);
#230=LINE('',#227,#229);
#231=EDGE_CURVE('',#220,#204,#230,.T.);
#232=ORIENTED_EDGE('',*,*,#231,.T.);
#233=EDGE_LOOP('',(#210,#218,#226,#232));
#234=FACE_OUTER_BOUND('',#233,.T.);
#235=ADVANCED_FACE('',(#234),#200,.F.);
#236=CARTESIAN_POINT('',(22.999999999999993,15.000000000000002,0.0));
#237=DIRECTION('',(-1.0,0.0,0.0));
#238=DIRECTION('',(0.0,0.0,1.0));
#239=AXIS2_PLACEMENT_3D('',#236,#237,#238);
#240=PLANE('',#239);
#241=CARTESIAN_POINT('',(22.999999999999993,0.0,0.0));
#242=DIRECTION('',(-1.0,0.0,0.0));
#243=DIRECTION('',(0.0,-1.0,0.0));
#244=AXIS2_PLACEMENT_3D('',#241,#242,#243);
#245=CIRCLE('',#244,17.500000000000000);
#246=EDGE_CURVE('',#204,#220,#245,.T.);
#247=ORIENTED_EDGE('',*,*,#246,.F.);
#248=ORIENTED_EDGE('',*,*,#231,.F.);
#249=EDGE_LOOP('',(#247,#248));
#250=FACE_OUTER_BOUND('',#249,.T.);
#251=ADVANCED_FACE('',(#250),#240,.F.);
#252=CARTESIAN_POINT('',(33.0,17.500000000000000,0.0));
#253=DIRECTION('',(1.0,0.0,0.0));
#254=DIRECTION('',(0.0,0.0,-1.0));
#255=AXIS2_PLACEMENT_3D('',#252,#253,#254);
#256=PLANE('',#255);
#257=CARTESIAN_POINT('',(33.0,0.0,0.0));
#258=DIRECTION('',(1.0,0.0,0.0));
#259=DIRECTION('',(0.0,-1.0,0.0));
#260=AXIS2_PLACEMENT_3D('',#257,#258,#259);
#261=CIRCLE('',#260,17.500000000000000);
#262=EDGE_CURVE('',#212,#202,#261,.T.);
#263=ORIENTED_EDGE('',*,*,#262,.F.);
#264=ORIENTED_EDGE('',*,*,#217,.T.);
#265=EDGE_LOOP('',(#263,#264));
#266=FACE_OUTER_BOUND('',#265,.T.);
#267=ADVANCED_FACE('',(#266),#256,.F.);
#268=CARTESIAN_POINT('',(30.000000000000004,0.0,0.0));
#269=DIRECTION('',(-1.0,0.0,0.0));
#270=DIRECTION('',(0.0,-1.0,0.0));
#271=AXIS2_PLACEMENT_3D('',#268,#269,#270);
#272=CYLINDRICAL_SURFACE('',#271,17.500000000000000);
#273=CARTESIAN_POINT('',(20.0,-17.500000000000000,0.0));
#274=VERTEX_POINT('',#273);
#275=CARTESIAN_POINT('',(20.0,0.0,0.0));
#276=DIRECTION('',(-1.0,0.0,0.0));
#277=DIRECTION('',(0.0,-1.0,0.0));
#278=AXIS2_PLACEMENT_3D('',#275,#276,#277);
#279=CIRCLE('',#278,17.500000000000000);
#280=EDGE_CURVE('',#274,#274,#279,.T.);
#281=ORIENTED_EDGE('',*,*,#280,.F.);
#282=EDGE_LOOP('',(#281));
#283=FACE_OUTER_BOUND('',#282,.T.);
#284=ORIENTED_EDGE('',*,*,#153,.T.);
#285=ORIENTED_EDGE('',*,*,#174,.T.);
#286=ORIENTED_EDGE('',*,*,#137,.T.);
#287=ORIENTED_EDGE('',*,*,#190,.T.);
#288=EDGE_LOOP('',(#284,#285,#286,#287));
#289=FACE_BOUND('',#288,.T.);
#290=ORIENTED_EDGE('',*,*,#246,.T.);
#291=ORIENTED_EDGE('',*,*,#225,.T.);
#292=ORIENTED_EDGE('',*,*,#262,.T.);
#293=ORIENTED_EDGE('',*,*,#209,.T.);
#294=EDGE_LOOP('',(#290,#291,#292,#293));
#295=FACE_BOUND('',#294,.T.);
#296=CARTESIAN_POINT('',(40.000000000000007,-17.500000000000000,0.0));
#297=VERTEX_POINT('',#296);
#298=CARTESIAN_POINT('',(40.000000000000007,0.0,0.0));
#299=DIRECTION('',(-1.0,0.0,0.0));
#300=DIRECTION('',(0.0,-1.0,0.0));
#301=AXIS2_PLACEMENT_3D('',#298,#299,#300);
#302=CIRCLE('',#301,17.500000000000000);
#303=EDGE_CURVE('',#297,#297,#302,.T.);
#304=ORIENTED_EDGE('',*,*,#303,.T.);
#305=EDGE_LOOP('',(#304));
#306=FACE_BOUND('',#305,.T.);
#307=ADVANCED_FACE('',(#283,#289,#295,#306),#272,.T.);
#308=CARTESIAN_POINT('',(50.0,-13.250000000000000,0.0));
#309=DIRECTION('',(1.0,0.0,0.0));
#310=DIRECTION('',(0.0,0.0,-1.0));
#311=AXIS2_PLACEMENT_3D('',#308,#309,#310);
#312=PLANE('',#311);
#313=CARTESIAN_POINT('',(50.0,-13.500000000000000,0.0));
#314=VERTEX_POINT('',#313);
#315=CARTESIAN_POINT('',(50.0,0.0,0.0));
#316=DIRECTION('',(-1.0,0.0,0.0));
#317=DIRECTION('',(0.0,-1.0,0.0));
#318=AXIS2_PLACEMENT_3D('',#315,#316,#317);
#319=CIRCLE('',#318,13.500000000000000);
#320=EDGE_CURVE('',#314,#314,#319,.T.);
#321=ORIENTED_EDGE('',*,*,#320,.F.);
#322=EDGE_LOOP('',(#321));
#323=FACE_OUTER_BOUND('',#322,.T.);
#324=CARTESIAN_POINT('',(50.000000000000007,-12.999999999999998,0.0));
#325=VERTEX_POINT('',#324);
#326=CARTESIAN_POINT('',(50.000000000000007,0.0,0.0));
#327=DIRECTION('',(-1.0,0.0,0.0));
#328=DIRECTION('',(0.0,-1.0,0.0));
#329=AXIS2_PLACEMENT_3D('',#326,#327,#328);
#330=CIRCLE('',#329,12.999999999999998);
#331=EDGE_CURVE('',#325,#325,#330,.T.);
#332=ORIENTED_EDGE('',*,*,#331,.T.);
#333=EDGE_LOOP('',(#332));
#334=FACE_BOUND('',#333,.T.);
#335=ADVANCED_FACE('',(#323,#334),#312,.T.);
#336=CARTESIAN_POINT('',(49.739273682649376,0.0,0.0));
#337=DIRECTION('',(-1.0,0.0,0.0));
#338=DIRECTION('',(0.0,-1.0,0.0));
#339=AXIS2_PLACEMENT_3D('',#336,#337,#338);
#340=CONICAL_SURFACE('',#339,16.480115444024033,85.000000000000085);
#341=CARTESIAN_POINT('',(49.478547365298752,-19.460230888048066,0.0));
#342=VERTEX_POINT('',#341);
#343=CARTESIAN_POINT('',(49.478547365298752,0.0,0.0));
#344=DIRECTION('',(-1.0,0.0,0.0));
#345=DIRECTION('',(0.0,-1.0,0.0));
#346=AXIS2_PLACEMENT_3D('',#343,#344,#345);
#347=CIRCLE('',#346,19.460230888048066);
#348=EDGE_CURVE('',#342,#342,#347,.T.);
#349=ORIENTED_EDGE('',*,*,#348,.F.);
#350=EDGE_LOOP('',(#349));
#351=FACE_OUTER_BOUND('',#350,.T.);
#352=ORIENTED_EDGE('',*,*,#320,.T.);
#353=EDGE_LOOP('',(#352));
#354=FACE_BOUND('',#353,.T.);
#355=ADVANCED_FACE('',(#351,#354),#340,.T.);
#356=CARTESIAN_POINT('',(44.739273682649376,0.0,0.0));
#357=DIRECTION('',(-1.0,0.0,0.0));
#358=DIRECTION('',(0.0,-1.0,0.0));
#359=AXIS2_PLACEMENT_3D('',#356,#357,#358);
#360=CONICAL_SURFACE('',#359,20.730115444024033,14.999999999999973);
#361=CARTESIAN_POINT('',(39.999999999999993,-22.000000000000007,0.0));
#362=VERTEX_POINT('',#361);
#363=CARTESIAN_POINT('',(39.999999999999993,0.0,0.0));
#364=DIRECTION('',(-1.0,0.0,0.0));
#365=DIRECTION('',(0.0,-1.0,0.0));
#366=AXIS2_PLACEMENT_3D('',#363,#364,#365);
#367=CIRCLE('',#366,22.000000000000007);
#368=EDGE_CURVE('',#362,#362,#367,.T.);
#369=ORIENTED_EDGE('',*,*,#368,.F.);
#370=EDGE_LOOP('',(#369));
#371=FACE_OUTER_BOUND('',#370,.T.);
#372=ORIENTED_EDGE('',*,*,#348,.T.);
#373=EDGE_LOOP('',(#372));
#374=FACE_BOUND('',#373,.T.);
#375=ADVANCED_FACE('',(#371,#374),#360,.T.);
#376=CARTESIAN_POINT('',(40.0,-19.750000000000004,0.0));
#377=DIRECTION('',(-1.0,0.0,0.0));
#378=DIRECTION('',(0.0,0.0,1.0));
#379=AXIS2_PLACEMENT_3D('',#376,#377,#378);
#380=PLANE('',#379);
#381=ORIENTED_EDGE('',*,*,#368,.T.);
#382=EDGE_LOOP('',(#381));
#383=FACE_OUTER_BOUND('',#382,.T.);
#384=ORIENTED_EDGE('',*,*,#303,.F.);
#385=EDGE_LOOP('',(#384));
#386=FACE_BOUND('',#385,.T.);
#387=ADVANCED_FACE('',(#383,#386),#380,.T.);
#388=CARTESIAN_POINT('',(20.0,-16.200000000000003,0.0));
#389=DIRECTION('',(-1.0,0.0,0.0));
#390=DIRECTION('',(0.0,0.0,1.0));
#391=AXIS2_PLACEMENT_3D('',#388,#389,#390);
#392=PLANE('',#391);
#393=ORIENTED_EDGE('',*,*,#280,.T.);
#394=EDGE_LOOP('',(#393));
#395=FACE_OUTER_BOUND('',#394,.T.);
#396=CARTESIAN_POINT('',(20.0,-14.900000000000002,0.0));
#397=VERTEX_POINT('',#396);
#398=CARTESIAN_POINT('',(20.0,0.0,0.0));
#399=DIRECTION('',(-1.0,0.0,0.0));
#400=DIRECTION('',(0.0,-1.0,0.0));
#401=AXIS2_PLACEMENT_3D('',#398,#399,#400);
#402=CIRCLE('',#401,14.900000000000002);
#403=EDGE_CURVE('',#397,#397,#402,.T.);
#404=ORIENTED_EDGE('',*,*,#403,.F.);
#405=EDGE_LOOP('',(#404));
#406=FACE_BOUND('',#405,.T.);
#407=ADVANCED_FACE('',(#395,#406),#392,.T.);
#408=CARTESIAN_POINT('',(18.500000000000000,0.0,0.0));
#409=DIRECTION('',(-1.0,0.0,0.0));
#410=DIRECTION('',(0.0,-1.0,0.0));
#411=AXIS2_PLACEMENT_3D('',#408,#409,#410);
#412=CYLINDRICAL_SURFACE('',#411,14.900000000000002);
#413=ORIENTED_EDGE('',*,*,#119,.F.);
#414=EDGE_LOOP('',(#413));
#415=FACE_OUTER_BOUND('',#414,.T.);
#416=ORIENTED_EDGE('',*,*,#403,.T.);
#417=EDGE_LOOP('',(#416));
#418=FACE_BOUND('',#417,.T.);
#419=ADVANCED_FACE('',(#415,#418),#412,.T.);
#420=CARTESIAN_POINT('',(8.500000000000000,0.0,0.0));
#421=DIRECTION('',(-1.0,0.0,0.0));
#422=DIRECTION('',(0.0,-1.0,0.0));
#423=AXIS2_PLACEMENT_3D('',#420,#421,#422);
#424=CYLINDRICAL_SURFACE('',#423,16.624500000000001);
#425=ORIENTED_EDGE('',*,*,#91,.T.);
#426=EDGE_LOOP('',(#425));
#427=FACE_OUTER_BOUND('',#426,.T.);
#428=ORIENTED_EDGE('',*,*,#108,.T.);
#429=EDGE_LOOP('',(#428));
#430=FACE_BOUND('',#429,.T.);
#431=ADVANCED_FACE('',(#427,#430),#424,.T.);
#432=CARTESIAN_POINT('',(2.859365E-015,-14.812250000000001,0.0));
#433=DIRECTION('',(-1.0,0.0,0.0));
#434=DIRECTION('',(0.0,0.0,1.0));
#435=AXIS2_PLACEMENT_3D('',#432,#433,#434);
#436=PLANE('',#435);
#437=ORIENTED_EDGE('',*,*,#80,.T.);
#438=EDGE_LOOP('',(#437));
#439=FACE_OUTER_BOUND('',#438,.T.);
#440=CARTESIAN_POINT('',(2.388061E-015,-12.999999999999998,0.0));
#441=VERTEX_POINT('',#440);
#442=CARTESIAN_POINT('',(2.385245E-015,0.0,0.0));
#443=DIRECTION('',(-1.0,0.0,0.0));
#444=DIRECTION('',(0.0,-1.0,0.0));
#445=AXIS2_PLACEMENT_3D('',#442,#443,#444);
#446=CIRCLE('',#445,12.999999999999998);
#447=EDGE_CURVE('',#441,#441,#446,.T.);
#448=ORIENTED_EDGE('',*,*,#447,.F.);
#449=EDGE_LOOP('',(#448));
#450=FACE_BOUND('',#449,.T.);
#451=ADVANCED_FACE('',(#439,#450),#436,.T.);
#452=CARTESIAN_POINT('',(25.000000000000004,0.0,0.0));
#453=DIRECTION('',(-1.0,0.0,0.0));
#454=DIRECTION('',(0.0,-1.0,0.0));
#455=AXIS2_PLACEMENT_3D('',#452,#453,#454);
#456=CYLINDRICAL_SURFACE('',#455,12.999999999999998);
#457=ORIENTED_EDGE('',*,*,#331,.F.);
#458=EDGE_LOOP('',(#457));
#459=FACE_OUTER_BOUND('',#458,.T.);
#460=ORIENTED_EDGE('',*,*,#447,.T.);
#461=EDGE_LOOP('',(#460));
#462=FACE_BOUND('',#461,.T.);
#463=ADVANCED_FACE('',(#459,#462),#456,.F.);
#464=CLOSED_SHELL('',(#95,#123,#163,#179,#195,#235,#251,#267,#307,#335,#355,#375,#387,#407,#419,#431,#451,#463));
#465=MANIFOLD_SOLID_BREP('',#464);
#466=COLOUR_RGB('Standard',0.752941012382507,0.752941012382507,0.752941012382507);
#467=FILL_AREA_STYLE_COLOUR('Standard',#466);
#468=FILL_AREA_STYLE('Standard',(#467));
#469=SURFACE_STYLE_FILL_AREA(#468);
#470=SURFACE_SIDE_STYLE('Standard',(#469));
#471=SURFACE_STYLE_USAGE(.BOTH.,#470);
#472=PRESENTATION_STYLE_ASSIGNMENT((#471));
#473=STYLED_ITEM('',(#472),#465);
#474=MECHANICAL_DESIGN_GEOMETRIC_PRESENTATION_REPRESENTATION('',(#473),#36);
#475=ADVANCED_BREP_SHAPE_REPRESENTATION('ABSR',(#465),#36);
#476=SHAPE_REPRESENTATION_RELATIONSHIP('SRR','None',#475,#41);
ENDSEC;
END-ISO-10303-21;
