ISO-10303-21;
HEADER;
/****************************************************************
 * Generated by software with PDE/Lib inside                    *
 * PDElib Version v51a, created Thu 12/14/2006                  *
 * International Technegroup Inc. (www.iti-oh.com)              *
 ****************************************************************/
FILE_DESCRIPTION((''),'2;1');
FILE_NAME('T:\\Arbeitspl\S\dtze\\Aushilfe\\KPeters\\3D\\Steps 08_10\\12800\\12800020X.stp','2010-08-05T14:22:57',('thilbrands'),(''),'Autodesk Inventor 2008','Autodesk Inventor 2008','');
FILE_SCHEMA(('AUTOMOTIVE_DESIGN { 1 0 10303 214 1 1 1 1 }'));
ENDSEC;
DATA;
#5=APPLICATION_CONTEXT('automotive design');
#6=APPLICATION_PROTOCOL_DEFINITION('International Standard','automotive_design',2001,#5);
#7=PRODUCT_CONTEXT('',#5,'mechanical');
#8=PRODUCT('ENG-005067','ENG-005067',$,(#7));
#9=PRODUCT_RELATED_PRODUCT_CATEGORY('part',$,(#8));
#10=PRODUCT_DEFINITION_FORMATION('',$,#8);
#11=PRODUCT_DEFINITION_CONTEXT('part definition',#5,'design');
#12=PRODUCT_DEFINITION('',$,#10,#11);
#18=(NAMED_UNIT(*)PLANE_ANGLE_UNIT()SI_UNIT($,.RADIAN.));
#19=DIMENSIONAL_EXPONENTS(0.0,0.0,0.0,0.0,0.0,0.0,0.0);
#20=PLANE_ANGLE_MEASURE_WITH_UNIT(PLANE_ANGLE_MEASURE(0.017453292500000),#18);
#24=(CONVERSION_BASED_UNIT('DEGREE',#20)NAMED_UNIT(#19)PLANE_ANGLE_UNIT());
#28=(NAMED_UNIT(*)SI_UNIT($,.STERADIAN.)SOLID_ANGLE_UNIT());
#32=(LENGTH_UNIT()NAMED_UNIT(*)SI_UNIT(.MILLI.,.METRE.));
#34=UNCERTAINTY_MEASURE_WITH_UNIT(LENGTH_MEASURE(0.010000000000000),#32,'DISTANCE_ACCURACY_VALUE','');
#36=(GEOMETRIC_REPRESENTATION_CONTEXT(3)GLOBAL_UNCERTAINTY_ASSIGNED_CONTEXT((#34))GLOBAL_UNIT_ASSIGNED_CONTEXT((#24,#28,#32))REPRESENTATION_CONTEXT('None','None'));
#37=AXIS2_PLACEMENT_3D('',#38,#39,#40);
#38=CARTESIAN_POINT('',(0.0,0.0,0.0));
#39=DIRECTION('',(0.0,0.0,1.0));
#40=DIRECTION('',(1.0,0.0,0.0));
#41=SHAPE_REPRESENTATION('',(#37),#36);
#42=PRODUCT_DEFINITION_SHAPE('','',#12);
#43=SHAPE_DEFINITION_REPRESENTATION(#42,#41);
#49=(NAMED_UNIT(*)PLANE_ANGLE_UNIT()SI_UNIT($,.RADIAN.));
#50=DIMENSIONAL_EXPONENTS(0.0,0.0,0.0,0.0,0.0,0.0,0.0);
#51=PLANE_ANGLE_MEASURE_WITH_UNIT(PLANE_ANGLE_MEASURE(0.017453292500000),#49);
#55=(CONVERSION_BASED_UNIT('DEGREE',#51)NAMED_UNIT(#50)PLANE_ANGLE_UNIT());
#59=(NAMED_UNIT(*)SI_UNIT($,.STERADIAN.)SOLID_ANGLE_UNIT());
#63=(LENGTH_UNIT()NAMED_UNIT(*)SI_UNIT(.MILLI.,.METRE.));
#65=UNCERTAINTY_MEASURE_WITH_UNIT(LENGTH_MEASURE(0.000001000000000),#63,'DISTANCE_ACCURACY_VALUE','');
#67=(GEOMETRIC_REPRESENTATION_CONTEXT(3)GLOBAL_UNCERTAINTY_ASSIGNED_CONTEXT((#65))GLOBAL_UNIT_ASSIGNED_CONTEXT((#55,#59,#63))REPRESENTATION_CONTEXT('','3D'));
#68=CARTESIAN_POINT('',(40.951125461028404,7.271555E-015,0.0));
#69=DIRECTION('',(-1.0,-1.776125E-016,0.0));
#70=DIRECTION('',(0.0,-1.0,0.0));
#71=AXIS2_PLACEMENT_3D('',#68,#69,#70);
#72=CONICAL_SURFACE('',#71,20.750000000000007,50.000000000000028);
#73=CARTESIAN_POINT('',(39.902250922056808,-22.0,0.0));
#74=VERTEX_POINT('',#73);
#75=CARTESIAN_POINT('',(39.902250922056808,0.0,0.0));
#76=DIRECTION('',(-1.0,0.0,0.0));
#77=DIRECTION('',(0.0,-1.0,0.0));
#78=AXIS2_PLACEMENT_3D('',#75,#76,#77);
#79=CIRCLE('',#78,22.0);
#80=EDGE_CURVE('',#74,#74,#79,.T.);
#81=ORIENTED_EDGE('',*,*,#80,.F.);
#82=EDGE_LOOP('',(#81));
#83=FACE_OUTER_BOUND('',#82,.T.);
#84=CARTESIAN_POINT('',(42.000000000000014,-19.499999999999993,0.0));
#85=VERTEX_POINT('',#84);
#86=CARTESIAN_POINT('',(42.000000000000014,7.457848E-015,0.0));
#87=DIRECTION('',(1.0,0.0,0.0));
#88=DIRECTION('',(0.0,-1.0,0.0));
#89=AXIS2_PLACEMENT_3D('',#86,#87,#88);
#90=CIRCLE('',#89,19.500000000000004);
#91=EDGE_CURVE('',#85,#85,#90,.T.);
#92=ORIENTED_EDGE('',*,*,#91,.F.);
#93=EDGE_LOOP('',(#92));
#94=FACE_BOUND('',#93,.T.);
#95=ADVANCED_FACE('',(#83,#94),#72,.T.);
#96=CARTESIAN_POINT('',(28.440817451771160,5.049567E-015,0.0));
#97=DIRECTION('',(1.0,1.776125E-016,0.0));
#98=DIRECTION('',(0.0,-1.0,0.0));
#99=AXIS2_PLACEMENT_3D('',#96,#97,#98);
#100=CONICAL_SURFACE('',#99,19.500000000000007,80.000000000000028);
#101=CARTESIAN_POINT('',(28.000000000000004,-17.0,0.0));
#102=VERTEX_POINT('',#101);
#103=CARTESIAN_POINT('',(28.000000000000004,0.0,0.0));
#104=DIRECTION('',(-1.0,0.0,0.0));
#105=DIRECTION('',(0.0,-1.0,0.0));
#106=AXIS2_PLACEMENT_3D('',#103,#104,#105);
#107=CIRCLE('',#106,17.0);
#108=EDGE_CURVE('',#102,#102,#107,.T.);
#109=ORIENTED_EDGE('',*,*,#108,.F.);
#110=EDGE_LOOP('',(#109));
#111=FACE_OUTER_BOUND('',#110,.T.);
#112=CARTESIAN_POINT('',(28.881634903542327,-22.0,0.0));
#113=VERTEX_POINT('',#112);
#114=CARTESIAN_POINT('',(28.881634903542324,0.0,0.0));
#115=DIRECTION('',(1.0,0.0,0.0));
#116=DIRECTION('',(0.0,-1.0,0.0));
#117=AXIS2_PLACEMENT_3D('',#114,#115,#116);
#118=CIRCLE('',#117,22.0);
#119=EDGE_CURVE('',#113,#113,#118,.T.);
#120=ORIENTED_EDGE('',*,*,#119,.F.);
#121=EDGE_LOOP('',(#120));
#122=FACE_BOUND('',#121,.T.);
#123=ADVANCED_FACE('',(#111,#122),#100,.T.);
#124=CARTESIAN_POINT('',(10.425006977735771,0.0,0.0));
#125=DIRECTION('',(-1.0,0.0,0.0));
#126=DIRECTION('',(0.0,-1.0,0.0));
#127=AXIS2_PLACEMENT_3D('',#124,#125,#126);
#128=CONICAL_SURFACE('',#127,12.535250000000000,50.000000000000007);
#129=CARTESIAN_POINT('',(9.850013955471543,-13.220499999999999,0.0));
#130=VERTEX_POINT('',#129);
#131=CARTESIAN_POINT('',(9.850013955471543,0.0,0.0));
#132=DIRECTION('',(-1.0,0.0,0.0));
#133=DIRECTION('',(0.0,-1.0,0.0));
#134=AXIS2_PLACEMENT_3D('',#131,#132,#133);
#135=CIRCLE('',#134,13.220499999999999);
#136=EDGE_CURVE('',#130,#130,#135,.T.);
#137=ORIENTED_EDGE('',*,*,#136,.F.);
#138=EDGE_LOOP('',(#137));
#139=FACE_OUTER_BOUND('',#138,.T.);
#140=CARTESIAN_POINT('',(11.000000000000004,-11.850000000000001,0.0));
#141=VERTEX_POINT('',#140);
#142=CARTESIAN_POINT('',(11.000000000000004,0.0,0.0));
#143=DIRECTION('',(-1.0,0.0,0.0));
#144=DIRECTION('',(0.0,-1.0,0.0));
#145=AXIS2_PLACEMENT_3D('',#142,#143,#144);
#146=CIRCLE('',#145,11.850000000000001);
#147=EDGE_CURVE('',#141,#141,#146,.T.);
#148=ORIENTED_EDGE('',*,*,#147,.T.);
#149=EDGE_LOOP('',(#148));
#150=FACE_BOUND('',#149,.T.);
#151=ADVANCED_FACE('',(#139,#150),#128,.T.);
#152=CARTESIAN_POINT('',(0.574993022264234,0.0,0.0));
#153=DIRECTION('',(1.0,0.0,0.0));
#154=DIRECTION('',(0.0,-1.0,0.0));
#155=AXIS2_PLACEMENT_3D('',#152,#153,#154);
#156=CONICAL_SURFACE('',#155,12.535250000000000,49.999999999999979);
#157=CARTESIAN_POINT('',(2.220446E-015,-11.850000000000001,0.0));
#158=VERTEX_POINT('',#157);
#159=CARTESIAN_POINT('',(2.012279E-015,0.0,0.0));
#160=DIRECTION('',(-1.0,0.0,0.0));
#161=DIRECTION('',(0.0,-1.0,0.0));
#162=AXIS2_PLACEMENT_3D('',#159,#160,#161);
#163=CIRCLE('',#162,11.850000000000001);
#164=EDGE_CURVE('',#158,#158,#163,.T.);
#165=ORIENTED_EDGE('',*,*,#164,.F.);
#166=EDGE_LOOP('',(#165));
#167=FACE_OUTER_BOUND('',#166,.T.);
#168=CARTESIAN_POINT('',(1.149986044528465,-13.220499999999999,0.0));
#169=VERTEX_POINT('',#168);
#170=CARTESIAN_POINT('',(1.149986044528465,0.0,0.0));
#171=DIRECTION('',(1.0,0.0,0.0));
#172=DIRECTION('',(0.0,-1.0,0.0));
#173=AXIS2_PLACEMENT_3D('',#170,#171,#172);
#174=CIRCLE('',#173,13.220499999999999);
#175=EDGE_CURVE('',#169,#169,#174,.T.);
#176=ORIENTED_EDGE('',*,*,#175,.F.);
#177=EDGE_LOOP('',(#176));
#178=FACE_BOUND('',#177,.T.);
#179=ADVANCED_FACE('',(#167,#178),#156,.T.);
#180=CARTESIAN_POINT('',(17.000000000000004,7.999999999999989,15.000000000000007));
#181=CARTESIAN_POINT('',(25.0,7.999999999999989,15.000000000000009));
#182=CARTESIAN_POINT('',(17.000000000000004,-7.999999999999989,15.000000000000007));
#183=CARTESIAN_POINT('',(24.999999999999996,-7.999999999999989,15.000000000000007));
#184=B_SPLINE_SURFACE_WITH_KNOTS('',1,1,((#180,#182),(#181,#183)),.UNSPECIFIED.,.F.,.F.,.U.,(2,2),(2,2),(0.0,7.999999999999996),(0.0,15.999999999999979),.UNSPECIFIED.);
#185=CARTESIAN_POINT('',(17.000000000000004,7.999999999999989,15.000000000000007));
#186=VERTEX_POINT('',#185);
#187=CARTESIAN_POINT('',(25.0,7.999999999999988,15.000000000000009));
#188=VERTEX_POINT('',#187);
#189=CARTESIAN_POINT('',(17.000000000000004,7.999999999999989,15.000000000000007));
#190=DIRECTION('',(1.0,0.0,0.0));
#191=VECTOR('',#190,7.999999999999996);
#192=LINE('',#189,#191);
#193=EDGE_CURVE('',#186,#188,#192,.T.);
#194=ORIENTED_EDGE('',*,*,#193,.F.);
#195=CARTESIAN_POINT('',(17.000000000000004,-7.999999999999989,15.000000000000007));
#196=VERTEX_POINT('',#195);
#197=CARTESIAN_POINT('',(17.000000000000004,-7.999999999999989,15.000000000000007));
#198=DIRECTION('',(0.0,1.0,0.0));
#199=VECTOR('',#198,15.999999999999979);
#200=LINE('',#197,#199);
#201=EDGE_CURVE('',#196,#186,#200,.T.);
#202=ORIENTED_EDGE('',*,*,#201,.F.);
#203=CARTESIAN_POINT('',(25.0,-7.999999999999988,15.000000000000009));
#204=VERTEX_POINT('',#203);
#205=CARTESIAN_POINT('',(25.0,-7.999999999999988,15.000000000000009));
#206=DIRECTION('',(-1.0,0.0,0.0));
#207=VECTOR('',#206,7.999999999999996);
#208=LINE('',#205,#207);
#209=EDGE_CURVE('',#204,#196,#208,.T.);
#210=ORIENTED_EDGE('',*,*,#209,.F.);
#211=CARTESIAN_POINT('',(25.0,-7.999999999999988,15.000000000000009));
#212=DIRECTION('',(0.0,1.0,0.0));
#213=VECTOR('',#212,15.999999999999975);
#214=LINE('',#211,#213);
#215=EDGE_CURVE('',#204,#188,#214,.T.);
#216=ORIENTED_EDGE('',*,*,#215,.T.);
#217=EDGE_LOOP('',(#194,#202,#210,#216));
#218=FACE_OUTER_BOUND('',#217,.T.);
#219=ADVANCED_FACE('',(#218),#184,.F.);
#220=CARTESIAN_POINT('',(17.000000000000004,7.999999999999989,17.0));
#221=CARTESIAN_POINT('',(17.000000000000004,7.999999999999989,15.000000000000005));
#222=CARTESIAN_POINT('',(17.000000000000004,-7.999999999999989,17.0));
#223=CARTESIAN_POINT('',(17.000000000000004,-7.999999999999989,15.000000000000007));
#224=B_SPLINE_SURFACE_WITH_KNOTS('',1,1,((#220,#222),(#221,#223)),.UNSPECIFIED.,.F.,.F.,.U.,(2,2),(2,2),(0.0,1.999999999999995),(0.0,15.999999999999979),.UNSPECIFIED.);
#225=CARTESIAN_POINT('',(17.000000000000004,0.0,0.0));
#226=DIRECTION('',(-1.0,0.0,0.0));
#227=DIRECTION('',(0.0,-1.0,0.0));
#228=AXIS2_PLACEMENT_3D('',#225,#226,#227);
#229=CIRCLE('',#228,17.0);
#230=EDGE_CURVE('',#196,#186,#229,.T.);
#231=ORIENTED_EDGE('',*,*,#230,.F.);
#232=ORIENTED_EDGE('',*,*,#201,.T.);
#233=EDGE_LOOP('',(#231,#232));
#234=FACE_OUTER_BOUND('',#233,.T.);
#235=ADVANCED_FACE('',(#234),#224,.F.);
#236=CARTESIAN_POINT('',(25.0,7.999999999999988,15.000000000000007));
#237=CARTESIAN_POINT('',(25.0,7.999999999999988,17.0));
#238=CARTESIAN_POINT('',(25.0,-7.999999999999988,15.000000000000007));
#239=CARTESIAN_POINT('',(25.0,-7.999999999999988,17.0));
#240=B_SPLINE_SURFACE_WITH_KNOTS('',1,1,((#236,#238),(#237,#239)),.UNSPECIFIED.,.F.,.F.,.U.,(2,2),(2,2),(0.0,1.999999999999993),(0.0,15.999999999999975),.UNSPECIFIED.);
#241=CARTESIAN_POINT('',(25.0,0.0,0.0));
#242=DIRECTION('',(1.0,0.0,0.0));
#243=DIRECTION('',(0.0,-1.0,0.0));
#244=AXIS2_PLACEMENT_3D('',#241,#242,#243);
#245=CIRCLE('',#244,17.0);
#246=EDGE_CURVE('',#188,#204,#245,.T.);
#247=ORIENTED_EDGE('',*,*,#246,.F.);
#248=ORIENTED_EDGE('',*,*,#215,.F.);
#249=EDGE_LOOP('',(#247,#248));
#250=FACE_OUTER_BOUND('',#249,.T.);
#251=ADVANCED_FACE('',(#250),#240,.F.);
#252=CARTESIAN_POINT('',(25.0,0.0,-15.000000000000009));
#253=DIRECTION('',(0.0,0.0,1.0));
#254=DIRECTION('',(1.0,0.0,0.0));
#255=AXIS2_PLACEMENT_3D('',#252,#253,#254);
#256=PLANE('',#255);
#257=CARTESIAN_POINT('',(25.0,7.999999999999988,-15.000000000000009));
#258=VERTEX_POINT('',#257);
#259=CARTESIAN_POINT('',(17.000000000000004,7.999999999999989,-15.000000000000007));
#260=VERTEX_POINT('',#259);
#261=CARTESIAN_POINT('',(25.0,7.999999999999988,-15.000000000000009));
#262=DIRECTION('',(-1.0,0.0,0.0));
#263=VECTOR('',#262,7.999999999999996);
#264=LINE('',#261,#263);
#265=EDGE_CURVE('',#258,#260,#264,.T.);
#266=ORIENTED_EDGE('',*,*,#265,.F.);
#267=CARTESIAN_POINT('',(25.0,-7.999999999999988,-15.000000000000009));
#268=VERTEX_POINT('',#267);
#269=CARTESIAN_POINT('',(25.0,-7.999999999999988,-15.000000000000009));
#270=DIRECTION('',(0.0,1.0,0.0));
#271=VECTOR('',#270,15.999999999999975);
#272=LINE('',#269,#271);
#273=EDGE_CURVE('',#268,#258,#272,.T.);
#274=ORIENTED_EDGE('',*,*,#273,.F.);
#275=CARTESIAN_POINT('',(17.000000000000004,-7.999999999999989,-15.000000000000007));
#276=VERTEX_POINT('',#275);
#277=CARTESIAN_POINT('',(17.000000000000004,-7.999999999999989,-15.000000000000007));
#278=DIRECTION('',(1.0,0.0,0.0));
#279=VECTOR('',#278,7.999999999999996);
#280=LINE('',#277,#279);
#281=EDGE_CURVE('',#276,#268,#280,.T.);
#282=ORIENTED_EDGE('',*,*,#281,.F.);
#283=CARTESIAN_POINT('',(17.000000000000004,-7.999999999999989,-15.000000000000007));
#284=DIRECTION('',(0.0,1.0,0.0));
#285=VECTOR('',#284,15.999999999999979);
#286=LINE('',#283,#285);
#287=EDGE_CURVE('',#276,#260,#286,.T.);
#288=ORIENTED_EDGE('',*,*,#287,.T.);
#289=EDGE_LOOP('',(#266,#274,#282,#288));
#290=FACE_OUTER_BOUND('',#289,.T.);
#291=ADVANCED_FACE('',(#290),#256,.F.);
#292=CARTESIAN_POINT('',(17.000000000000004,0.0,-15.000000000000007));
#293=DIRECTION('',(-1.0,0.0,0.0));
#294=DIRECTION('',(0.0,0.0,1.0));
#295=AXIS2_PLACEMENT_3D('',#292,#293,#294);
#296=PLANE('',#295);
#297=CARTESIAN_POINT('',(17.000000000000004,0.0,0.0));
#298=DIRECTION('',(-1.0,0.0,0.0));
#299=DIRECTION('',(0.0,-1.0,0.0));
#300=AXIS2_PLACEMENT_3D('',#297,#298,#299);
#301=CIRCLE('',#300,17.0);
#302=EDGE_CURVE('',#260,#276,#301,.T.);
#303=ORIENTED_EDGE('',*,*,#302,.F.);
#304=ORIENTED_EDGE('',*,*,#287,.F.);
#305=EDGE_LOOP('',(#303,#304));
#306=FACE_OUTER_BOUND('',#305,.T.);
#307=ADVANCED_FACE('',(#306),#296,.F.);
#308=CARTESIAN_POINT('',(25.0,0.0,-17.0));
#309=DIRECTION('',(1.0,0.0,0.0));
#310=DIRECTION('',(0.0,0.0,-1.0));
#311=AXIS2_PLACEMENT_3D('',#308,#309,#310);
#312=PLANE('',#311);
#313=CARTESIAN_POINT('',(25.0,0.0,0.0));
#314=DIRECTION('',(1.0,0.0,0.0));
#315=DIRECTION('',(0.0,-1.0,0.0));
#316=AXIS2_PLACEMENT_3D('',#313,#314,#315);
#317=CIRCLE('',#316,17.0);
#318=EDGE_CURVE('',#268,#258,#317,.T.);
#319=ORIENTED_EDGE('',*,*,#318,.F.);
#320=ORIENTED_EDGE('',*,*,#273,.T.);
#321=EDGE_LOOP('',(#319,#320));
#322=FACE_OUTER_BOUND('',#321,.T.);
#323=ADVANCED_FACE('',(#322),#312,.F.);
#324=CARTESIAN_POINT('',(21.000000000000007,0.0,0.0));
#325=DIRECTION('',(-1.0,0.0,0.0));
#326=DIRECTION('',(0.0,-1.0,0.0));
#327=AXIS2_PLACEMENT_3D('',#324,#325,#326);
#328=CYLINDRICAL_SURFACE('',#327,17.0);
#329=CARTESIAN_POINT('',(14.000000000000004,-17.0,0.0));
#330=VERTEX_POINT('',#329);
#331=CARTESIAN_POINT('',(14.000000000000004,0.0,0.0));
#332=DIRECTION('',(-1.0,0.0,0.0));
#333=DIRECTION('',(0.0,-1.0,0.0));
#334=AXIS2_PLACEMENT_3D('',#331,#332,#333);
#335=CIRCLE('',#334,17.0);
#336=EDGE_CURVE('',#330,#330,#335,.T.);
#337=ORIENTED_EDGE('',*,*,#336,.F.);
#338=EDGE_LOOP('',(#337));
#339=FACE_OUTER_BOUND('',#338,.T.);
#340=ORIENTED_EDGE('',*,*,#209,.T.);
#341=ORIENTED_EDGE('',*,*,#230,.T.);
#342=ORIENTED_EDGE('',*,*,#193,.T.);
#343=ORIENTED_EDGE('',*,*,#246,.T.);
#344=EDGE_LOOP('',(#340,#341,#342,#343));
#345=FACE_BOUND('',#344,.T.);
#346=ORIENTED_EDGE('',*,*,#302,.T.);
#347=ORIENTED_EDGE('',*,*,#281,.T.);
#348=ORIENTED_EDGE('',*,*,#318,.T.);
#349=ORIENTED_EDGE('',*,*,#265,.T.);
#350=EDGE_LOOP('',(#346,#347,#348,#349));
#351=FACE_BOUND('',#350,.T.);
#352=ORIENTED_EDGE('',*,*,#108,.T.);
#353=EDGE_LOOP('',(#352));
#354=FACE_BOUND('',#353,.T.);
#355=ADVANCED_FACE('',(#339,#345,#351,#354),#328,.T.);
#356=CARTESIAN_POINT('',(36.000000000000007,-10.750000000000004,0.0));
#357=DIRECTION('',(1.0,0.0,0.0));
#358=DIRECTION('',(0.0,0.0,-1.0));
#359=AXIS2_PLACEMENT_3D('',#356,#357,#358);
#360=PLANE('',#359);
#361=CARTESIAN_POINT('',(36.000000000000007,-11.500000000000007,0.0));
#362=VERTEX_POINT('',#361);
#363=CARTESIAN_POINT('',(36.000000000000007,0.0,0.0));
#364=DIRECTION('',(-1.0,0.0,0.0));
#365=DIRECTION('',(0.0,-1.0,0.0));
#366=AXIS2_PLACEMENT_3D('',#363,#364,#365);
#367=CIRCLE('',#366,11.500000000000007);
#368=EDGE_CURVE('',#362,#362,#367,.T.);
#369=ORIENTED_EDGE('',*,*,#368,.F.);
#370=EDGE_LOOP('',(#369));
#371=FACE_OUTER_BOUND('',#370,.T.);
#372=CARTESIAN_POINT('',(36.000000000000007,-10.0,0.0));
#373=VERTEX_POINT('',#372);
#374=CARTESIAN_POINT('',(36.000000000000007,0.0,0.0));
#375=DIRECTION('',(-1.0,0.0,0.0));
#376=DIRECTION('',(0.0,-1.0,0.0));
#377=AXIS2_PLACEMENT_3D('',#374,#375,#376);
#378=CIRCLE('',#377,10.0);
#379=EDGE_CURVE('',#373,#373,#378,.T.);
#380=ORIENTED_EDGE('',*,*,#379,.T.);
#381=EDGE_LOOP('',(#380));
#382=FACE_BOUND('',#381,.T.);
#383=ADVANCED_FACE('',(#371,#382),#360,.T.);
#384=CARTESIAN_POINT('',(34.500000000000007,0.0,0.0));
#385=DIRECTION('',(-1.0,0.0,0.0));
#386=DIRECTION('',(0.0,-1.0,0.0));
#387=AXIS2_PLACEMENT_3D('',#384,#385,#386);
#388=CYLINDRICAL_SURFACE('',#387,11.500000000000007);
#389=CARTESIAN_POINT('',(33.000000000000007,-11.500000000000005,0.0));
#390=VERTEX_POINT('',#389);
#391=CARTESIAN_POINT('',(33.000000000000007,0.0,0.0));
#392=DIRECTION('',(-1.0,0.0,0.0));
#393=DIRECTION('',(0.0,-1.0,0.0));
#394=AXIS2_PLACEMENT_3D('',#391,#392,#393);
#395=CIRCLE('',#394,11.500000000000005);
#396=EDGE_CURVE('',#390,#390,#395,.T.);
#397=ORIENTED_EDGE('',*,*,#396,.F.);
#398=EDGE_LOOP('',(#397));
#399=FACE_OUTER_BOUND('',#398,.T.);
#400=ORIENTED_EDGE('',*,*,#368,.T.);
#401=EDGE_LOOP('',(#400));
#402=FACE_BOUND('',#401,.T.);
#403=ADVANCED_FACE('',(#399,#402),#388,.T.);
#404=CARTESIAN_POINT('',(33.000000000000007,-13.950000000000005,0.0));
#405=DIRECTION('',(1.0,0.0,0.0));
#406=DIRECTION('',(0.0,0.0,-1.0));
#407=AXIS2_PLACEMENT_3D('',#404,#405,#406);
#408=PLANE('',#407);
#409=CARTESIAN_POINT('',(33.000000000000007,-16.400000000000002,0.0));
#410=VERTEX_POINT('',#409);
#411=CARTESIAN_POINT('',(33.000000000000007,0.0,0.0));
#412=DIRECTION('',(-1.0,0.0,0.0));
#413=DIRECTION('',(0.0,-1.0,0.0));
#414=AXIS2_PLACEMENT_3D('',#411,#412,#413);
#415=CIRCLE('',#414,16.400000000000002);
#416=EDGE_CURVE('',#410,#410,#415,.T.);
#417=ORIENTED_EDGE('',*,*,#416,.F.);
#418=EDGE_LOOP('',(#417));
#419=FACE_OUTER_BOUND('',#418,.T.);
#420=ORIENTED_EDGE('',*,*,#396,.T.);
#421=EDGE_LOOP('',(#420));
#422=FACE_BOUND('',#421,.T.);
#423=ADVANCED_FACE('',(#419,#422),#408,.T.);
#424=CARTESIAN_POINT('',(34.500000000000007,0.0,0.0));
#425=DIRECTION('',(-1.0,0.0,0.0));
#426=DIRECTION('',(0.0,-1.0,0.0));
#427=AXIS2_PLACEMENT_3D('',#424,#425,#426);
#428=CYLINDRICAL_SURFACE('',#427,16.400000000000002);
#429=CARTESIAN_POINT('',(36.000000000000007,-16.400000000000002,0.0));
#430=VERTEX_POINT('',#429);
#431=CARTESIAN_POINT('',(36.000000000000007,0.0,0.0));
#432=DIRECTION('',(-1.0,0.0,0.0));
#433=DIRECTION('',(0.0,-1.0,0.0));
#434=AXIS2_PLACEMENT_3D('',#431,#432,#433);
#435=CIRCLE('',#434,16.400000000000002);
#436=EDGE_CURVE('',#430,#430,#435,.T.);
#437=ORIENTED_EDGE('',*,*,#436,.F.);
#438=EDGE_LOOP('',(#437));
#439=FACE_OUTER_BOUND('',#438,.T.);
#440=ORIENTED_EDGE('',*,*,#416,.T.);
#441=EDGE_LOOP('',(#440));
#442=FACE_BOUND('',#441,.T.);
#443=ADVANCED_FACE('',(#439,#442),#428,.F.);
#444=CARTESIAN_POINT('',(39.000000000000007,0.0,0.0));
#445=DIRECTION('',(1.0,0.0,0.0));
#446=DIRECTION('',(0.0,-1.0,0.0));
#447=AXIS2_PLACEMENT_3D('',#444,#445,#446);
#448=CONICAL_SURFACE('',#447,17.203847577293374,14.999999999999973);
#449=CARTESIAN_POINT('',(42.000000000000014,-18.007695154586738,0.0));
#450=VERTEX_POINT('',#449);
#451=CARTESIAN_POINT('',(42.000000000000014,0.0,0.0));
#452=DIRECTION('',(-1.0,0.0,0.0));
#453=DIRECTION('',(0.0,-1.0,0.0));
#454=AXIS2_PLACEMENT_3D('',#451,#452,#453);
#455=CIRCLE('',#454,18.007695154586738);
#456=EDGE_CURVE('',#450,#450,#455,.T.);
#457=ORIENTED_EDGE('',*,*,#456,.F.);
#458=EDGE_LOOP('',(#457));
#459=FACE_OUTER_BOUND('',#458,.T.);
#460=ORIENTED_EDGE('',*,*,#436,.T.);
#461=EDGE_LOOP('',(#460));
#462=FACE_BOUND('',#461,.T.);
#463=ADVANCED_FACE('',(#459,#462),#448,.F.);
#464=CARTESIAN_POINT('',(42.000000000000014,-20.003847577293364,0.0));
#465=DIRECTION('',(1.0,0.0,0.0));
#466=DIRECTION('',(0.0,0.0,-1.0));
#467=AXIS2_PLACEMENT_3D('',#464,#465,#466);
#468=PLANE('',#467);
#469=ORIENTED_EDGE('',*,*,#91,.T.);
#470=EDGE_LOOP('',(#469));
#471=FACE_OUTER_BOUND('',#470,.T.);
#472=ORIENTED_EDGE('',*,*,#456,.T.);
#473=EDGE_LOOP('',(#472));
#474=FACE_BOUND('',#473,.T.);
#475=ADVANCED_FACE('',(#471,#474),#468,.T.);
#476=CARTESIAN_POINT('',(35.000000000000007,0.0,0.0));
#477=DIRECTION('',(-1.0,0.0,0.0));
#478=DIRECTION('',(0.0,-1.0,0.0));
#479=AXIS2_PLACEMENT_3D('',#476,#477,#478);
#480=CYLINDRICAL_SURFACE('',#479,22.0);
#481=ORIENTED_EDGE('',*,*,#80,.T.);
#482=EDGE_LOOP('',(#481));
#483=FACE_OUTER_BOUND('',#482,.T.);
#484=ORIENTED_EDGE('',*,*,#119,.T.);
#485=EDGE_LOOP('',(#484));
#486=FACE_BOUND('',#485,.T.);
#487=ADVANCED_FACE('',(#483,#486),#480,.T.);
#488=CARTESIAN_POINT('',(14.000000000000004,-14.424999999999999,0.0));
#489=DIRECTION('',(-1.0,0.0,0.0));
#490=DIRECTION('',(0.0,0.0,1.0));
#491=AXIS2_PLACEMENT_3D('',#488,#489,#490);
#492=PLANE('',#491);
#493=ORIENTED_EDGE('',*,*,#336,.T.);
#494=EDGE_LOOP('',(#493));
#495=FACE_OUTER_BOUND('',#494,.T.);
#496=CARTESIAN_POINT('',(14.000000000000004,-11.850000000000001,0.0));
#497=VERTEX_POINT('',#496);
#498=CARTESIAN_POINT('',(14.000000000000004,0.0,0.0));
#499=DIRECTION('',(-1.0,0.0,0.0));
#500=DIRECTION('',(0.0,-1.0,0.0));
#501=AXIS2_PLACEMENT_3D('',#498,#499,#500);
#502=CIRCLE('',#501,11.850000000000001);
#503=EDGE_CURVE('',#497,#497,#502,.T.);
#504=ORIENTED_EDGE('',*,*,#503,.F.);
#505=EDGE_LOOP('',(#504));
#506=FACE_BOUND('',#505,.T.);
#507=ADVANCED_FACE('',(#495,#506),#492,.T.);
#508=CARTESIAN_POINT('',(12.500000000000004,0.0,0.0));
#509=DIRECTION('',(-1.0,0.0,0.0));
#510=DIRECTION('',(0.0,-1.0,0.0));
#511=AXIS2_PLACEMENT_3D('',#508,#509,#510);
#512=CYLINDRICAL_SURFACE('',#511,11.850000000000001);
#513=ORIENTED_EDGE('',*,*,#147,.F.);
#514=EDGE_LOOP('',(#513));
#515=FACE_OUTER_BOUND('',#514,.T.);
#516=ORIENTED_EDGE('',*,*,#503,.T.);
#517=EDGE_LOOP('',(#516));
#518=FACE_BOUND('',#517,.T.);
#519=ADVANCED_FACE('',(#515,#518),#512,.T.);
#520=CARTESIAN_POINT('',(5.500000000000002,0.0,0.0));
#521=DIRECTION('',(-1.0,0.0,0.0));
#522=DIRECTION('',(0.0,-1.0,0.0));
#523=AXIS2_PLACEMENT_3D('',#520,#521,#522);
#524=CYLINDRICAL_SURFACE('',#523,13.220499999999999);
#525=ORIENTED_EDGE('',*,*,#136,.T.);
#526=EDGE_LOOP('',(#525));
#527=FACE_OUTER_BOUND('',#526,.T.);
#528=ORIENTED_EDGE('',*,*,#175,.T.);
#529=EDGE_LOOP('',(#528));
#530=FACE_BOUND('',#529,.T.);
#531=ADVANCED_FACE('',(#527,#530),#524,.T.);
#532=CARTESIAN_POINT('',(2.028708E-015,-11.610250000000001,0.0));
#533=DIRECTION('',(-1.0,0.0,0.0));
#534=DIRECTION('',(0.0,0.0,1.0));
#535=AXIS2_PLACEMENT_3D('',#532,#533,#534);
#536=PLANE('',#535);
#537=ORIENTED_EDGE('',*,*,#164,.T.);
#538=EDGE_LOOP('',(#537));
#539=FACE_OUTER_BOUND('',#538,.T.);
#540=CARTESIAN_POINT('',(1.836970E-015,-10.0,0.0));
#541=VERTEX_POINT('',#540);
#542=CARTESIAN_POINT('',(1.838807E-015,0.0,0.0));
#543=DIRECTION('',(-1.0,0.0,0.0));
#544=DIRECTION('',(0.0,-1.0,0.0));
#545=AXIS2_PLACEMENT_3D('',#542,#543,#544);
#546=CIRCLE('',#545,10.0);
#547=EDGE_CURVE('',#541,#541,#546,.T.);
#548=ORIENTED_EDGE('',*,*,#547,.F.);
#549=EDGE_LOOP('',(#548));
#550=FACE_BOUND('',#549,.T.);
#551=ADVANCED_FACE('',(#539,#550),#536,.T.);
#552=CARTESIAN_POINT('',(18.000000000000004,0.0,0.0));
#553=DIRECTION('',(-1.0,0.0,0.0));
#554=DIRECTION('',(0.0,-1.0,0.0));
#555=AXIS2_PLACEMENT_3D('',#552,#553,#554);
#556=CYLINDRICAL_SURFACE('',#555,10.0);
#557=ORIENTED_EDGE('',*,*,#379,.F.);
#558=EDGE_LOOP('',(#557));
#559=FACE_OUTER_BOUND('',#558,.T.);
#560=ORIENTED_EDGE('',*,*,#547,.T.);
#561=EDGE_LOOP('',(#560));
#562=FACE_BOUND('',#561,.T.);
#563=ADVANCED_FACE('',(#559,#562),#556,.F.);
#564=CLOSED_SHELL('',(#95,#123,#151,#179,#219,#235,#251,#291,#307,#323,#355,#383,#403,#423,#443,#463,#475,#487,#507,#519,#531,#551,#563));
#565=MANIFOLD_SOLID_BREP('',#564);
#566=COLOUR_RGB('Standard',0.752941012382507,0.752941012382507,0.752941012382507);
#567=FILL_AREA_STYLE_COLOUR('Standard',#566);
#568=FILL_AREA_STYLE('Standard',(#567));
#569=SURFACE_STYLE_FILL_AREA(#568);
#570=SURFACE_SIDE_STYLE('Standard',(#569));
#571=SURFACE_STYLE_USAGE(.BOTH.,#570);
#572=PRESENTATION_STYLE_ASSIGNMENT((#571));
#573=STYLED_ITEM('',(#572),#565);
#574=MECHANICAL_DESIGN_GEOMETRIC_PRESENTATION_REPRESENTATION('',(#573),#36);
#575=ADVANCED_BREP_SHAPE_REPRESENTATION('ABSR',(#565),#36);
#576=SHAPE_REPRESENTATION_RELATIONSHIP('SRR','None',#575,#41);
ENDSEC;
END-ISO-10303-21;
