ISO-10303-21;
HEADER;
/****************************************************************
 * Generated by software with PDE/Lib inside                    *
 * PDElib Version v51a, created Thu 12/14/2006                  *
 * International Technegroup Inc. (www.iti-oh.com)              *
 ****************************************************************/
FILE_DESCRIPTION((''),'2;1');
FILE_NAME('T:\\Arbeitspl\S\dtze\\Aushilfe\\KPeters\\3D\\Steps 08_10\\13600\\13600032X.stp','2010-08-09T15:22:46',('thilbrands'),(''),'Autodesk Inventor 2008','Autodesk Inventor 2008','');
FILE_SCHEMA(('AUTOMOTIVE_DESIGN { 1 0 10303 214 1 1 1 1 }'));
ENDSEC;
DATA;
#5=APPLICATION_CONTEXT('automotive design');
#6=APPLICATION_PROTOCOL_DEFINITION('International Standard','automotive_design',2001,#5);
#7=PRODUCT_CONTEXT('',#5,'mechanical');
#8=PRODUCT('136000251','136000251',$,(#7));
#9=PRODUCT_RELATED_PRODUCT_CATEGORY('part',$,(#8));
#10=PRODUCT_DEFINITION_FORMATION('',$,#8);
#11=PRODUCT_DEFINITION_CONTEXT('part definition',#5,'design');
#12=PRODUCT_DEFINITION('',$,#10,#11);
#18=(NAMED_UNIT(*)PLANE_ANGLE_UNIT()SI_UNIT($,.RADIAN.));
#19=DIMENSIONAL_EXPONENTS(0.0,0.0,0.0,0.0,0.0,0.0,0.0);
#20=PLANE_ANGLE_MEASURE_WITH_UNIT(PLANE_ANGLE_MEASURE(0.017453292500000),#18);
#24=(CONVERSION_BASED_UNIT('DEGREE',#20)NAMED_UNIT(#19)PLANE_ANGLE_UNIT());
#28=(NAMED_UNIT(*)SI_UNIT($,.STERADIAN.)SOLID_ANGLE_UNIT());
#32=(LENGTH_UNIT()NAMED_UNIT(*)SI_UNIT(.MILLI.,.METRE.));
#34=UNCERTAINTY_MEASURE_WITH_UNIT(LENGTH_MEASURE(0.010000000000000),#32,'DISTANCE_ACCURACY_VALUE','');
#36=(GEOMETRIC_REPRESENTATION_CONTEXT(3)GLOBAL_UNCERTAINTY_ASSIGNED_CONTEXT((#34))GLOBAL_UNIT_ASSIGNED_CONTEXT((#24,#28,#32))REPRESENTATION_CONTEXT('None','None'));
#37=AXIS2_PLACEMENT_3D('',#38,#39,#40);
#38=CARTESIAN_POINT('',(0.0,0.0,0.0));
#39=DIRECTION('',(0.0,0.0,1.0));
#40=DIRECTION('',(1.0,0.0,0.0));
#41=SHAPE_REPRESENTATION('',(#37,#320,#668),#36);
#42=PRODUCT_DEFINITION_SHAPE('','',#12);
#43=SHAPE_DEFINITION_REPRESENTATION(#42,#41);
#44=APPLICATION_CONTEXT('automotive design');
#45=APPLICATION_PROTOCOL_DEFINITION('International Standard','automotive_design',2001,#44);
#46=PRODUCT_CONTEXT('',#44,'mechanical');
#47=PRODUCT('138000101-DN32','138000101-DN32',$,(#46));
#48=PRODUCT_RELATED_PRODUCT_CATEGORY('part',$,(#47));
#49=PRODUCT_DEFINITION_FORMATION('',$,#47);
#50=PRODUCT_DEFINITION_CONTEXT('part definition',#44,'design');
#51=PRODUCT_DEFINITION('',$,#49,#50);
#57=(NAMED_UNIT(*)PLANE_ANGLE_UNIT()SI_UNIT($,.RADIAN.));
#58=DIMENSIONAL_EXPONENTS(0.0,0.0,0.0,0.0,0.0,0.0,0.0);
#59=PLANE_ANGLE_MEASURE_WITH_UNIT(PLANE_ANGLE_MEASURE(0.017453292500000),#57);
#63=(CONVERSION_BASED_UNIT('DEGREE',#59)NAMED_UNIT(#58)PLANE_ANGLE_UNIT());
#67=(NAMED_UNIT(*)SI_UNIT($,.STERADIAN.)SOLID_ANGLE_UNIT());
#71=(LENGTH_UNIT()NAMED_UNIT(*)SI_UNIT(.MILLI.,.METRE.));
#73=UNCERTAINTY_MEASURE_WITH_UNIT(LENGTH_MEASURE(0.010000000000000),#71,'DISTANCE_ACCURACY_VALUE','');
#75=(GEOMETRIC_REPRESENTATION_CONTEXT(3)GLOBAL_UNCERTAINTY_ASSIGNED_CONTEXT((#73))GLOBAL_UNIT_ASSIGNED_CONTEXT((#63,#67,#71))REPRESENTATION_CONTEXT('None','None'));
#76=AXIS2_PLACEMENT_3D('',#77,#78,#79);
#77=CARTESIAN_POINT('',(0.0,0.0,0.0));
#78=DIRECTION('',(0.0,0.0,1.0));
#79=DIRECTION('',(1.0,0.0,0.0));
#80=SHAPE_REPRESENTATION('',(#76),#75);
#81=PRODUCT_DEFINITION_SHAPE('','',#51);
#82=SHAPE_DEFINITION_REPRESENTATION(#81,#80);
#88=(NAMED_UNIT(*)PLANE_ANGLE_UNIT()SI_UNIT($,.RADIAN.));
#89=DIMENSIONAL_EXPONENTS(0.0,0.0,0.0,0.0,0.0,0.0,0.0);
#90=PLANE_ANGLE_MEASURE_WITH_UNIT(PLANE_ANGLE_MEASURE(0.017453292500000),#88);
#94=(CONVERSION_BASED_UNIT('DEGREE',#90)NAMED_UNIT(#89)PLANE_ANGLE_UNIT());
#98=(NAMED_UNIT(*)SI_UNIT($,.STERADIAN.)SOLID_ANGLE_UNIT());
#102=(LENGTH_UNIT()NAMED_UNIT(*)SI_UNIT(.MILLI.,.METRE.));
#104=UNCERTAINTY_MEASURE_WITH_UNIT(LENGTH_MEASURE(0.000001000000000),#102,'DISTANCE_ACCURACY_VALUE','');
#106=(GEOMETRIC_REPRESENTATION_CONTEXT(3)GLOBAL_UNCERTAINTY_ASSIGNED_CONTEXT((#104))GLOBAL_UNIT_ASSIGNED_CONTEXT((#94,#98,#102))REPRESENTATION_CONTEXT('','3D'));
#107=CARTESIAN_POINT('',(-5.134781E-015,18.0,0.0));
#108=DIRECTION('',(1.0,0.0,0.0));
#109=DIRECTION('',(0.0,0.0,-1.0));
#110=AXIS2_PLACEMENT_3D('',#107,#108,#109);
#111=PLANE('',#110);
#112=CARTESIAN_POINT('',(-5.828671E-015,20.0,0.0));
#113=VERTEX_POINT('',#112);
#114=CARTESIAN_POINT('',(-5.828671E-015,0.0,0.0));
#115=DIRECTION('',(1.0,0.0,0.0));
#116=DIRECTION('',(0.0,1.0,0.0));
#117=AXIS2_PLACEMENT_3D('',#114,#115,#116);
#118=CIRCLE('',#117,20.0);
#119=EDGE_CURVE('',#113,#113,#118,.T.);
#120=ORIENTED_EDGE('',*,*,#119,.T.);
#121=EDGE_LOOP('',(#120));
#122=FACE_OUTER_BOUND('',#121,.T.);
#123=CARTESIAN_POINT('',(-4.440892E-015,15.999999999999996,0.0));
#124=VERTEX_POINT('',#123);
#125=CARTESIAN_POINT('',(-4.440892E-015,0.0,0.0));
#126=DIRECTION('',(1.0,0.0,0.0));
#127=DIRECTION('',(0.0,1.0,0.0));
#128=AXIS2_PLACEMENT_3D('',#125,#126,#127);
#129=CIRCLE('',#128,15.999999999999996);
#130=EDGE_CURVE('',#124,#124,#129,.T.);
#131=ORIENTED_EDGE('',*,*,#130,.F.);
#132=EDGE_LOOP('',(#131));
#133=FACE_BOUND('',#132,.T.);
#134=ADVANCED_FACE('',(#122,#133),#111,.T.);
#135=CARTESIAN_POINT('',(-32.500000000000000,0.0,0.0));
#136=DIRECTION('',(1.0,0.0,0.0));
#137=DIRECTION('',(0.0,1.0,0.0));
#138=AXIS2_PLACEMENT_3D('',#135,#136,#137);
#139=CYLINDRICAL_SURFACE('',#138,15.999999999999988);
#140=CARTESIAN_POINT('',(-65.0,15.999999999999979,0.0));
#141=VERTEX_POINT('',#140);
#142=CARTESIAN_POINT('',(-65.0,0.0,0.0));
#143=DIRECTION('',(1.0,0.0,0.0));
#144=DIRECTION('',(0.0,1.0,0.0));
#145=AXIS2_PLACEMENT_3D('',#142,#143,#144);
#146=CIRCLE('',#145,15.999999999999979);
#147=EDGE_CURVE('',#141,#141,#146,.T.);
#148=ORIENTED_EDGE('',*,*,#147,.F.);
#149=EDGE_LOOP('',(#148));
#150=FACE_OUTER_BOUND('',#149,.T.);
#151=ORIENTED_EDGE('',*,*,#130,.T.);
#152=EDGE_LOOP('',(#151));
#153=FACE_BOUND('',#152,.T.);
#154=ADVANCED_FACE('',(#150,#153),#139,.F.);
#155=CARTESIAN_POINT('',(-65.0,17.294692077166125,0.0));
#156=DIRECTION('',(-1.0,0.0,0.0));
#157=DIRECTION('',(0.0,0.0,1.0));
#158=AXIS2_PLACEMENT_3D('',#155,#156,#157);
#159=PLANE('',#158);
#160=CARTESIAN_POINT('',(-65.0,18.589384154332272,0.0));
#161=VERTEX_POINT('',#160);
#162=CARTESIAN_POINT('',(-65.0,0.0,0.0));
#163=DIRECTION('',(1.0,0.0,0.0));
#164=DIRECTION('',(0.0,1.0,0.0));
#165=AXIS2_PLACEMENT_3D('',#162,#163,#164);
#166=CIRCLE('',#165,18.589384154332272);
#167=EDGE_CURVE('',#161,#161,#166,.T.);
#168=ORIENTED_EDGE('',*,*,#167,.F.);
#169=EDGE_LOOP('',(#168));
#170=FACE_OUTER_BOUND('',#169,.T.);
#171=ORIENTED_EDGE('',*,*,#147,.T.);
#172=EDGE_LOOP('',(#171));
#173=FACE_BOUND('',#172,.T.);
#174=ADVANCED_FACE('',(#170,#173),#159,.T.);
#175=CARTESIAN_POINT('',(-61.0,0.0,0.0));
#176=DIRECTION('',(1.0,0.0,0.0));
#177=DIRECTION('',(0.0,1.0,0.0));
#178=AXIS2_PLACEMENT_3D('',#175,#176,#177);
#179=CONICAL_SURFACE('',#178,19.294692077166133,10.000000000000034);
#180=CARTESIAN_POINT('',(-57.0,19.999999999999996,0.0));
#181=VERTEX_POINT('',#180);
#182=CARTESIAN_POINT('',(-57.0,0.0,0.0));
#183=DIRECTION('',(1.0,0.0,0.0));
#184=DIRECTION('',(0.0,1.0,0.0));
#185=AXIS2_PLACEMENT_3D('',#182,#183,#184);
#186=CIRCLE('',#185,19.999999999999996);
#187=EDGE_CURVE('',#181,#181,#186,.T.);
#188=ORIENTED_EDGE('',*,*,#187,.F.);
#189=EDGE_LOOP('',(#188));
#190=FACE_OUTER_BOUND('',#189,.T.);
#191=ORIENTED_EDGE('',*,*,#167,.T.);
#192=EDGE_LOOP('',(#191));
#193=FACE_BOUND('',#192,.T.);
#194=ADVANCED_FACE('',(#190,#193),#179,.T.);
#195=CARTESIAN_POINT('',(-56.711324865405182,0.0,0.0));
#196=DIRECTION('',(-1.0,0.0,0.0));
#197=DIRECTION('',(0.0,1.0,0.0));
#198=AXIS2_PLACEMENT_3D('',#195,#196,#197);
#199=CONICAL_SURFACE('',#198,19.499999999999996,59.999999999999780);
#200=CARTESIAN_POINT('',(-56.422649730810370,18.999999999999993,0.0));
#201=VERTEX_POINT('',#200);
#202=CARTESIAN_POINT('',(-56.422649730810370,0.0,0.0));
#203=DIRECTION('',(1.0,0.0,0.0));
#204=DIRECTION('',(0.0,1.0,0.0));
#205=AXIS2_PLACEMENT_3D('',#202,#203,#204);
#206=CIRCLE('',#205,18.999999999999993);
#207=EDGE_CURVE('',#201,#201,#206,.T.);
#208=ORIENTED_EDGE('',*,*,#207,.F.);
#209=EDGE_LOOP('',(#208));
#210=FACE_OUTER_BOUND('',#209,.T.);
#211=ORIENTED_EDGE('',*,*,#187,.T.);
#212=EDGE_LOOP('',(#211));
#213=FACE_BOUND('',#212,.T.);
#214=ADVANCED_FACE('',(#210,#213),#199,.T.);
#215=CARTESIAN_POINT('',(-44.952944714114757,0.0,0.0));
#216=DIRECTION('',(1.0,0.0,0.0));
#217=DIRECTION('',(0.0,1.0,0.0));
#218=AXIS2_PLACEMENT_3D('',#215,#216,#217);
#219=CYLINDRICAL_SURFACE('',#218,18.999999999999993);
#220=CARTESIAN_POINT('',(-33.483239697419137,18.999999999999993,0.0));
#221=VERTEX_POINT('',#220);
#222=CARTESIAN_POINT('',(-33.483239697419137,0.0,0.0));
#223=DIRECTION('',(1.0,0.0,0.0));
#224=DIRECTION('',(0.0,1.0,0.0));
#225=AXIS2_PLACEMENT_3D('',#222,#223,#224);
#226=CIRCLE('',#225,18.999999999999993);
#227=EDGE_CURVE('',#221,#221,#226,.T.);
#228=ORIENTED_EDGE('',*,*,#227,.F.);
#229=EDGE_LOOP('',(#228));
#230=FACE_OUTER_BOUND('',#229,.T.);
#231=ORIENTED_EDGE('',*,*,#207,.T.);
#232=EDGE_LOOP('',(#231));
#233=FACE_BOUND('',#232,.T.);
#234=ADVANCED_FACE('',(#230,#233),#219,.T.);
#235=CARTESIAN_POINT('',(-32.0,0.0,0.0));
#236=DIRECTION('',(1.0,0.0,0.0));
#237=DIRECTION('',(0.0,0.0,-1.0));
#238=AXIS2_PLACEMENT_3D('',#235,#236,#237);
#239=TOROIDAL_SURFACE('',#238,18.399999999999999,1.600000000000000);
#240=CARTESIAN_POINT('',(-30.516760302580870,18.999999999999993,0.0));
#241=VERTEX_POINT('',#240);
#242=CARTESIAN_POINT('',(-30.516760302580870,0.0,0.0));
#243=DIRECTION('',(1.0,0.0,0.0));
#244=DIRECTION('',(0.0,1.0,0.0));
#245=AXIS2_PLACEMENT_3D('',#242,#243,#244);
#246=CIRCLE('',#245,18.999999999999993);
#247=EDGE_CURVE('',#241,#241,#246,.T.);
#248=ORIENTED_EDGE('',*,*,#247,.F.);
#249=EDGE_LOOP('',(#248));
#250=FACE_OUTER_BOUND('',#249,.T.);
#251=ORIENTED_EDGE('',*,*,#227,.T.);
#252=EDGE_LOOP('',(#251));
#253=FACE_BOUND('',#252,.T.);
#254=ADVANCED_FACE('',(#250,#253),#239,.T.);
#255=CARTESIAN_POINT('',(-19.258380151290435,0.0,0.0));
#256=DIRECTION('',(1.0,0.0,0.0));
#257=DIRECTION('',(0.0,1.0,0.0));
#258=AXIS2_PLACEMENT_3D('',#255,#256,#257);
#259=CYLINDRICAL_SURFACE('',#258,18.999999999999996);
#260=CARTESIAN_POINT('',(-7.999999999999996,19.0,0.0));
#261=VERTEX_POINT('',#260);
#262=CARTESIAN_POINT('',(-7.999999999999996,0.0,0.0));
#263=DIRECTION('',(1.0,0.0,0.0));
#264=DIRECTION('',(0.0,1.0,0.0));
#265=AXIS2_PLACEMENT_3D('',#262,#263,#264);
#266=CIRCLE('',#265,19.0);
#267=EDGE_CURVE('',#261,#261,#266,.T.);
#268=ORIENTED_EDGE('',*,*,#267,.F.);
#269=EDGE_LOOP('',(#268));
#270=FACE_OUTER_BOUND('',#269,.T.);
#271=ORIENTED_EDGE('',*,*,#247,.T.);
#272=EDGE_LOOP('',(#271));
#273=FACE_BOUND('',#272,.T.);
#274=ADVANCED_FACE('',(#270,#273),#259,.T.);
#275=CARTESIAN_POINT('',(-7.499999999999996,0.0,0.0));
#276=DIRECTION('',(1.0,0.0,0.0));
#277=DIRECTION('',(0.0,1.0,0.0));
#278=AXIS2_PLACEMENT_3D('',#275,#276,#277);
#279=CONICAL_SURFACE('',#278,19.500000000000000,45.000000000000043);
#280=CARTESIAN_POINT('',(-6.999999999999996,20.0,0.0));
#281=VERTEX_POINT('',#280);
#282=CARTESIAN_POINT('',(-6.999999999999996,0.0,0.0));
#283=DIRECTION('',(1.0,0.0,0.0));
#284=DIRECTION('',(0.0,1.0,0.0));
#285=AXIS2_PLACEMENT_3D('',#282,#283,#284);
#286=CIRCLE('',#285,20.0);
#287=EDGE_CURVE('',#281,#281,#286,.T.);
#288=ORIENTED_EDGE('',*,*,#287,.F.);
#289=EDGE_LOOP('',(#288));
#290=FACE_OUTER_BOUND('',#289,.T.);
#291=ORIENTED_EDGE('',*,*,#267,.T.);
#292=EDGE_LOOP('',(#291));
#293=FACE_BOUND('',#292,.T.);
#294=ADVANCED_FACE('',(#290,#293),#279,.T.);
#295=CARTESIAN_POINT('',(-3.500000000000001,0.0,0.0));
#296=DIRECTION('',(1.0,0.0,0.0));
#297=DIRECTION('',(0.0,1.0,0.0));
#298=AXIS2_PLACEMENT_3D('',#295,#296,#297);
#299=CYLINDRICAL_SURFACE('',#298,20.0);
#300=ORIENTED_EDGE('',*,*,#119,.F.);
#301=EDGE_LOOP('',(#300));
#302=FACE_OUTER_BOUND('',#301,.T.);
#303=ORIENTED_EDGE('',*,*,#287,.T.);
#304=EDGE_LOOP('',(#303));
#305=FACE_BOUND('',#304,.T.);
#306=ADVANCED_FACE('',(#302,#305),#299,.T.);
#307=CLOSED_SHELL('',(#134,#154,#174,#194,#214,#234,#254,#274,#294,#306));
#308=MANIFOLD_SOLID_BREP('',#307);
#309=COLOUR_RGB('Metall - Stahl',0.639216005802155,0.639216005802155,0.686275005340576);
#310=FILL_AREA_STYLE_COLOUR('Metall - Stahl',#309);
#311=FILL_AREA_STYLE('Metall - Stahl',(#310));
#312=SURFACE_STYLE_FILL_AREA(#311);
#313=SURFACE_SIDE_STYLE('Metall - Stahl',(#312));
#314=SURFACE_STYLE_USAGE(.BOTH.,#313);
#315=PRESENTATION_STYLE_ASSIGNMENT((#314));
#316=STYLED_ITEM('',(#315),#308);
#317=MECHANICAL_DESIGN_GEOMETRIC_PRESENTATION_REPRESENTATION('',(#316,#665),#36);
#318=ADVANCED_BREP_SHAPE_REPRESENTATION('ABSR',(#308),#75);
#319=SHAPE_REPRESENTATION_RELATIONSHIP('SRR','None',#318,#80);
#320=AXIS2_PLACEMENT_3D('',#321,#322,#323);
#321=CARTESIAN_POINT('',(0.0,0.0,0.0));
#322=DIRECTION('',(0.0,0.0,1.0));
#323=DIRECTION('',(1.0,0.0,0.0));
#324=NEXT_ASSEMBLY_USAGE_OCCURRENCE('138000101-DN32:1','138000101-DN32:1','138000101-DN32:1',#12,#51,'138000101-DN32:1');
#325=PRODUCT_DEFINITION_SHAPE('138000101-DN32:1','138000101-DN32:1',#324);
#326=ITEM_DEFINED_TRANSFORMATION('138000101-DN32:1','138000101-DN32:1',#76,#320);
#330=(REPRESENTATION_RELATIONSHIP('138000101-DN32:1','138000101-DN32:1',#80,#41)REPRESENTATION_RELATIONSHIP_WITH_TRANSFORMATION(#326)SHAPE_REPRESENTATION_RELATIONSHIP());
#331=CONTEXT_DEPENDENT_SHAPE_REPRESENTATION(#330,#325);
#332=APPLICATION_CONTEXT('automotive design');
#333=APPLICATION_PROTOCOL_DEFINITION('International Standard','automotive_design',2001,#332);
#334=PRODUCT_CONTEXT('',#332,'mechanical');
#335=PRODUCT('ENG-007296-DN32','ENG-007296-DN32',$,(#334));
#336=PRODUCT_RELATED_PRODUCT_CATEGORY('part',$,(#335));
#337=PRODUCT_DEFINITION_FORMATION('',$,#335);
#338=PRODUCT_DEFINITION_CONTEXT('part definition',#332,'design');
#339=PRODUCT_DEFINITION('',$,#337,#338);
#345=(NAMED_UNIT(*)PLANE_ANGLE_UNIT()SI_UNIT($,.RADIAN.));
#346=DIMENSIONAL_EXPONENTS(0.0,0.0,0.0,0.0,0.0,0.0,0.0);
#347=PLANE_ANGLE_MEASURE_WITH_UNIT(PLANE_ANGLE_MEASURE(0.017453292500000),#345);
#351=(CONVERSION_BASED_UNIT('DEGREE',#347)NAMED_UNIT(#346)PLANE_ANGLE_UNIT());
#355=(NAMED_UNIT(*)SI_UNIT($,.STERADIAN.)SOLID_ANGLE_UNIT());
#359=(LENGTH_UNIT()NAMED_UNIT(*)SI_UNIT(.MILLI.,.METRE.));
#361=UNCERTAINTY_MEASURE_WITH_UNIT(LENGTH_MEASURE(0.010000000000000),#359,'DISTANCE_ACCURACY_VALUE','');
#363=(GEOMETRIC_REPRESENTATION_CONTEXT(3)GLOBAL_UNCERTAINTY_ASSIGNED_CONTEXT((#361))GLOBAL_UNIT_ASSIGNED_CONTEXT((#351,#355,#359))REPRESENTATION_CONTEXT('None','None'));
#364=AXIS2_PLACEMENT_3D('',#365,#366,#367);
#365=CARTESIAN_POINT('',(0.0,0.0,0.0));
#366=DIRECTION('',(0.0,0.0,1.0));
#367=DIRECTION('',(1.0,0.0,0.0));
#368=SHAPE_REPRESENTATION('',(#364),#363);
#369=PRODUCT_DEFINITION_SHAPE('','',#339);
#370=SHAPE_DEFINITION_REPRESENTATION(#369,#368);
#376=(NAMED_UNIT(*)PLANE_ANGLE_UNIT()SI_UNIT($,.RADIAN.));
#377=DIMENSIONAL_EXPONENTS(0.0,0.0,0.0,0.0,0.0,0.0,0.0);
#378=PLANE_ANGLE_MEASURE_WITH_UNIT(PLANE_ANGLE_MEASURE(0.017453292500000),#376);
#382=(CONVERSION_BASED_UNIT('DEGREE',#378)NAMED_UNIT(#377)PLANE_ANGLE_UNIT());
#386=(NAMED_UNIT(*)SI_UNIT($,.STERADIAN.)SOLID_ANGLE_UNIT());
#390=(LENGTH_UNIT()NAMED_UNIT(*)SI_UNIT(.MILLI.,.METRE.));
#392=UNCERTAINTY_MEASURE_WITH_UNIT(LENGTH_MEASURE(0.000001000000000),#390,'DISTANCE_ACCURACY_VALUE','');
#394=(GEOMETRIC_REPRESENTATION_CONTEXT(3)GLOBAL_UNCERTAINTY_ASSIGNED_CONTEXT((#392))GLOBAL_UNIT_ASSIGNED_CONTEXT((#382,#386,#390))REPRESENTATION_CONTEXT('','3D'));
#395=CARTESIAN_POINT('',(14.599999999999991,-2.265522E-015,18.500000000000000));
#396=CARTESIAN_POINT('',(12.999999999999991,-2.265522E-015,18.500000000000000));
#397=CARTESIAN_POINT('',(12.999999999999989,-2.461459E-015,20.100000000000001));
#398=CARTESIAN_POINT('',(12.999999999999991,-2.657396E-015,21.700000000000003));
#399=CARTESIAN_POINT('',(14.599999999999991,-2.657396E-015,21.700000000000003));
#400=CARTESIAN_POINT('',(14.599999999999991,-18.500000000000000,18.499999999999993));
#401=CARTESIAN_POINT('',(12.999999999999989,-18.500000000000000,18.499999999999993));
#402=CARTESIAN_POINT('',(12.999999999999989,-20.100000000000001,20.099999999999994));
#403=CARTESIAN_POINT('',(12.999999999999989,-21.700000000000003,21.699999999999996));
#404=CARTESIAN_POINT('',(14.599999999999991,-21.700000000000003,21.699999999999996));
#405=CARTESIAN_POINT('',(14.599999999999991,-18.500000000000000,-2.265522E-015));
#406=CARTESIAN_POINT('',(12.999999999999991,-18.500000000000000,-2.265522E-015));
#407=CARTESIAN_POINT('',(12.999999999999989,-20.100000000000001,-2.461459E-015));
#408=CARTESIAN_POINT('',(12.999999999999991,-21.700000000000003,-2.657396E-015));
#409=CARTESIAN_POINT('',(14.599999999999991,-21.700000000000003,-2.657396E-015));
#410=CARTESIAN_POINT('',(14.599999999999991,-18.499999999999993,-18.500000000000000));
#411=CARTESIAN_POINT('',(12.999999999999989,-18.499999999999993,-18.500000000000000));
#412=CARTESIAN_POINT('',(12.999999999999989,-20.099999999999994,-20.100000000000001));
#413=CARTESIAN_POINT('',(12.999999999999989,-21.699999999999996,-21.700000000000003));
#414=CARTESIAN_POINT('',(14.599999999999991,-21.699999999999996,-21.700000000000003));
#415=CARTESIAN_POINT('',(14.599999999999991,2.265522E-015,-18.500000000000000));
#416=CARTESIAN_POINT('',(12.999999999999991,2.265522E-015,-18.500000000000000));
#417=CARTESIAN_POINT('',(12.999999999999989,2.461459E-015,-20.100000000000001));
#418=CARTESIAN_POINT('',(12.999999999999991,2.657396E-015,-21.700000000000003));
#419=CARTESIAN_POINT('',(14.599999999999991,2.657396E-015,-21.700000000000003));
#420=CARTESIAN_POINT('',(14.599999999999991,18.500000000000000,-18.499999999999993));
#421=CARTESIAN_POINT('',(12.999999999999989,18.500000000000000,-18.499999999999993));
#422=CARTESIAN_POINT('',(12.999999999999989,20.100000000000001,-20.099999999999994));
#423=CARTESIAN_POINT('',(12.999999999999989,21.700000000000003,-21.699999999999996));
#424=CARTESIAN_POINT('',(14.599999999999991,21.700000000000003,-21.699999999999996));
#425=CARTESIAN_POINT('',(14.599999999999991,18.500000000000000,2.265522E-015));
#426=CARTESIAN_POINT('',(12.999999999999991,18.500000000000000,2.265522E-015));
#427=CARTESIAN_POINT('',(12.999999999999989,20.100000000000001,2.461459E-015));
#428=CARTESIAN_POINT('',(12.999999999999991,21.700000000000003,2.657396E-015));
#429=CARTESIAN_POINT('',(14.599999999999991,21.700000000000003,2.657396E-015));
#430=CARTESIAN_POINT('',(14.599999999999991,18.499999999999993,18.500000000000000));
#431=CARTESIAN_POINT('',(12.999999999999989,18.499999999999993,18.500000000000000));
#432=CARTESIAN_POINT('',(12.999999999999989,20.099999999999994,20.100000000000001));
#433=CARTESIAN_POINT('',(12.999999999999989,21.699999999999996,21.700000000000003));
#434=CARTESIAN_POINT('',(14.599999999999991,21.699999999999996,21.700000000000003));
#435=CARTESIAN_POINT('',(14.599999999999991,-2.265522E-015,18.500000000000000));
#436=CARTESIAN_POINT('',(12.999999999999991,-2.265522E-015,18.500000000000000));
#437=CARTESIAN_POINT('',(12.999999999999989,-2.461459E-015,20.100000000000001));
#438=CARTESIAN_POINT('',(12.999999999999991,-2.657396E-015,21.700000000000003));
#439=CARTESIAN_POINT('',(14.599999999999991,-2.657396E-015,21.700000000000003));
#447=(BOUNDED_SURFACE()B_SPLINE_SURFACE(2,2,((#395,#400,#405,#410,#415,#420,#425,#430,#435),(#396,#401,#406,#411,#416,#421,#426,#431,#436),(#397,#402,#407,#412,#417,#422,#427,#432,#437),(#398,#403,#408,#413,#418,#423,#428,#433,#438),(#399,#404,#409,#414,#419,#424,#429,#434,#439)),.UNSPECIFIED.,.F.,.T.,.U.)B_SPLINE_SURFACE_WITH_KNOTS((3,2,3),(3,2,2,2,3),(-3.141592653589793,-1.570796326794897,0.0),(0.0,1.570796326794897,3.141592653589793,4.712388980384690,6.283185307179586),.UNSPECIFIED.)GEOMETRIC_REPRESENTATION_ITEM()RATIONAL_B_SPLINE_SURFACE(((1.0,0.707106781186548,1.0,0.707106781186548,1.0,0.707106781186548,1.0,0.707106781186548,1.0),(0.707106781186549,0.500000000000001,0.707106781186549,0.500000000000001,0.707106781186549,0.500000000000001,0.707106781186549,0.500000000000001,0.707106781186549),(1.0,0.707106781186548,1.0,0.707106781186548,1.0,0.707106781186548,1.0,0.707106781186548,1.0),(0.707106781186549,0.500000000000001,0.707106781186549,0.500000000000001,0.707106781186549,0.500000000000001,0.707106781186549,0.500000000000001,0.707106781186549),(1.0,0.707106781186548,1.0,0.707106781186548,1.0,0.707106781186548,1.0,0.707106781186548,1.0)))REPRESENTATION_ITEM('')SURFACE());
#448=CARTESIAN_POINT('',(12.999999999999991,20.100000000000001,-4.930381E-031));
#449=VERTEX_POINT('',#448);
#450=CARTESIAN_POINT('',(12.999999999999991,0.0,0.0));
#451=DIRECTION('',(1.0,0.0,0.0));
#452=DIRECTION('',(0.0,-1.0,0.0));
#453=AXIS2_PLACEMENT_3D('',#450,#451,#452);
#454=CIRCLE('',#453,20.100000000000001);
#455=EDGE_CURVE('',#449,#449,#454,.T.);
#456=ORIENTED_EDGE('',*,*,#455,.T.);
#457=EDGE_LOOP('',(#456));
#458=FACE_OUTER_BOUND('',#457,.T.);
#459=CARTESIAN_POINT('',(14.599999999999991,18.500000000000000,-4.531044E-015));
#460=VERTEX_POINT('',#459);
#461=CARTESIAN_POINT('',(14.599999999999991,0.0,0.0));
#462=DIRECTION('',(-1.0,0.0,0.0));
#463=DIRECTION('',(0.0,-1.0,0.0));
#464=AXIS2_PLACEMENT_3D('',#461,#462,#463);
#465=CIRCLE('',#464,18.500000000000000);
#466=EDGE_CURVE('',#460,#460,#465,.T.);
#467=ORIENTED_EDGE('',*,*,#466,.T.);
#468=EDGE_LOOP('',(#467));
#469=FACE_BOUND('',#468,.T.);
#470=ADVANCED_FACE('',(#458,#469),#447,.T.);
#471=CARTESIAN_POINT('',(12.999999999999991,19.500000000000007,0.0));
#472=DIRECTION('',(1.0,0.0,0.0));
#473=DIRECTION('',(0.0,0.0,-1.0));
#474=AXIS2_PLACEMENT_3D('',#471,#472,#473);
#475=PLANE('',#474);
#476=CARTESIAN_POINT('',(12.999999999999989,20.500000000000014,0.0));
#477=VERTEX_POINT('',#476);
#478=CARTESIAN_POINT('',(12.999999999999989,0.0,0.0));
#479=DIRECTION('',(1.0,0.0,0.0));
#480=DIRECTION('',(0.0,1.0,0.0));
#481=AXIS2_PLACEMENT_3D('',#478,#479,#480);
#482=CIRCLE('',#481,20.500000000000014);
#483=EDGE_CURVE('',#477,#477,#482,.T.);
#484=ORIENTED_EDGE('',*,*,#483,.T.);
#485=EDGE_LOOP('',(#484));
#486=FACE_OUTER_BOUND('',#485,.T.);
#487=ORIENTED_EDGE('',*,*,#455,.F.);
#488=EDGE_LOOP('',(#487));
#489=FACE_BOUND('',#488,.T.);
#490=ADVANCED_FACE('',(#486,#489),#475,.T.);
#491=CARTESIAN_POINT('',(18.566987298107772,0.0,0.0));
#492=DIRECTION('',(1.0,0.0,0.0));
#493=DIRECTION('',(0.0,1.0,0.0));
#494=AXIS2_PLACEMENT_3D('',#491,#492,#493);
#495=CYLINDRICAL_SURFACE('',#494,18.500000000000000);
#496=CARTESIAN_POINT('',(24.133974596215548,18.500000000000007,0.0));
#497=VERTEX_POINT('',#496);
#498=CARTESIAN_POINT('',(24.133974596215548,0.0,0.0));
#499=DIRECTION('',(1.0,0.0,0.0));
#500=DIRECTION('',(0.0,1.0,0.0));
#501=AXIS2_PLACEMENT_3D('',#498,#499,#500);
#502=CIRCLE('',#501,18.500000000000007);
#503=EDGE_CURVE('',#497,#497,#502,.T.);
#504=ORIENTED_EDGE('',*,*,#503,.F.);
#505=EDGE_LOOP('',(#504));
#506=FACE_OUTER_BOUND('',#505,.T.);
#507=ORIENTED_EDGE('',*,*,#466,.F.);
#508=EDGE_LOOP('',(#507));
#509=FACE_BOUND('',#508,.T.);
#510=ADVANCED_FACE('',(#506,#509),#495,.T.);
#511=CARTESIAN_POINT('',(0.260726317350626,0.0,0.0));
#512=DIRECTION('',(1.0,0.0,0.0));
#513=DIRECTION('',(0.0,1.0,0.0));
#514=AXIS2_PLACEMENT_3D('',#511,#512,#513);
#515=CONICAL_SURFACE('',#514,19.480115444024033,85.000000000000085);
#516=CARTESIAN_POINT('',(0.521452634701254,22.460230888048063,0.0));
#517=VERTEX_POINT('',#516);
#518=CARTESIAN_POINT('',(0.521452634701254,0.0,0.0));
#519=DIRECTION('',(1.0,0.0,0.0));
#520=DIRECTION('',(0.0,1.0,0.0));
#521=AXIS2_PLACEMENT_3D('',#518,#519,#520);
#522=CIRCLE('',#521,22.460230888048063);
#523=EDGE_CURVE('',#517,#517,#522,.T.);
#524=ORIENTED_EDGE('',*,*,#523,.F.);
#525=EDGE_LOOP('',(#524));
#526=FACE_OUTER_BOUND('',#525,.T.);
#527=CARTESIAN_POINT('',(-1.032243E-015,16.500000000000004,0.0));
#528=VERTEX_POINT('',#527);
#529=CARTESIAN_POINT('',(-1.032243E-015,0.0,0.0));
#530=DIRECTION('',(1.0,0.0,0.0));
#531=DIRECTION('',(0.0,1.0,0.0));
#532=AXIS2_PLACEMENT_3D('',#529,#530,#531);
#533=CIRCLE('',#532,16.500000000000004);
#534=EDGE_CURVE('',#528,#528,#533,.T.);
#535=ORIENTED_EDGE('',*,*,#534,.T.);
#536=EDGE_LOOP('',(#535));
#537=FACE_BOUND('',#536,.T.);
#538=ADVANCED_FACE('',(#526,#537),#515,.T.);
#539=CARTESIAN_POINT('',(5.260726317350622,0.0,0.0));
#540=DIRECTION('',(1.0,0.0,0.0));
#541=DIRECTION('',(0.0,1.0,0.0));
#542=AXIS2_PLACEMENT_3D('',#539,#540,#541);
#543=CONICAL_SURFACE('',#542,23.730115444024030,14.999999999999973);
#544=CARTESIAN_POINT('',(9.999999999999991,25.0,0.0));
#545=VERTEX_POINT('',#544);
#546=CARTESIAN_POINT('',(9.999999999999991,0.0,0.0));
#547=DIRECTION('',(1.0,0.0,0.0));
#548=DIRECTION('',(0.0,1.0,0.0));
#549=AXIS2_PLACEMENT_3D('',#546,#547,#548);
#550=CIRCLE('',#549,25.0);
#551=EDGE_CURVE('',#545,#545,#550,.T.);
#552=ORIENTED_EDGE('',*,*,#551,.F.);
#553=EDGE_LOOP('',(#552));
#554=FACE_OUTER_BOUND('',#553,.T.);
#555=ORIENTED_EDGE('',*,*,#523,.T.);
#556=EDGE_LOOP('',(#555));
#557=FACE_BOUND('',#556,.T.);
#558=ADVANCED_FACE('',(#554,#557),#543,.T.);
#559=CARTESIAN_POINT('',(9.999999999999989,22.750000000000007,0.0));
#560=DIRECTION('',(1.0,0.0,0.0));
#561=DIRECTION('',(0.0,0.0,-1.0));
#562=AXIS2_PLACEMENT_3D('',#559,#560,#561);
#563=PLANE('',#562);
#564=ORIENTED_EDGE('',*,*,#551,.T.);
#565=EDGE_LOOP('',(#564));
#566=FACE_OUTER_BOUND('',#565,.T.);
#567=CARTESIAN_POINT('',(9.999999999999986,20.500000000000014,0.0));
#568=VERTEX_POINT('',#567);
#569=CARTESIAN_POINT('',(9.999999999999986,0.0,0.0));
#570=DIRECTION('',(1.0,0.0,0.0));
#571=DIRECTION('',(0.0,1.0,0.0));
#572=AXIS2_PLACEMENT_3D('',#569,#570,#571);
#573=CIRCLE('',#572,20.500000000000014);
#574=EDGE_CURVE('',#568,#568,#573,.T.);
#575=ORIENTED_EDGE('',*,*,#574,.F.);
#576=EDGE_LOOP('',(#575));
#577=FACE_BOUND('',#576,.T.);
#578=ADVANCED_FACE('',(#566,#577),#563,.T.);
#579=CARTESIAN_POINT('',(11.499999999999988,0.0,0.0));
#580=DIRECTION('',(1.0,0.0,0.0));
#581=DIRECTION('',(0.0,1.0,0.0));
#582=AXIS2_PLACEMENT_3D('',#579,#580,#581);
#583=CYLINDRICAL_SURFACE('',#582,20.500000000000014);
#584=ORIENTED_EDGE('',*,*,#483,.F.);
#585=EDGE_LOOP('',(#584));
#586=FACE_OUTER_BOUND('',#585,.T.);
#587=ORIENTED_EDGE('',*,*,#574,.T.);
#588=EDGE_LOOP('',(#587));
#589=FACE_BOUND('',#588,.T.);
#590=ADVANCED_FACE('',(#586,#589),#583,.T.);
#591=CARTESIAN_POINT('',(24.566987298107769,0.0,0.0));
#592=DIRECTION('',(-1.0,0.0,0.0));
#593=DIRECTION('',(0.0,1.0,0.0));
#594=AXIS2_PLACEMENT_3D('',#591,#592,#593);
#595=CONICAL_SURFACE('',#594,17.750000000000004,59.999999999999943);
#596=CARTESIAN_POINT('',(24.999999999999993,17.0,0.0));
#597=VERTEX_POINT('',#596);
#598=CARTESIAN_POINT('',(24.999999999999993,0.0,0.0));
#599=DIRECTION('',(1.0,0.0,0.0));
#600=DIRECTION('',(0.0,1.0,0.0));
#601=AXIS2_PLACEMENT_3D('',#598,#599,#600);
#602=CIRCLE('',#601,17.0);
#603=EDGE_CURVE('',#597,#597,#602,.T.);
#604=ORIENTED_EDGE('',*,*,#603,.F.);
#605=EDGE_LOOP('',(#604));
#606=FACE_OUTER_BOUND('',#605,.T.);
#607=ORIENTED_EDGE('',*,*,#503,.T.);
#608=EDGE_LOOP('',(#607));
#609=FACE_BOUND('',#608,.T.);
#610=ADVANCED_FACE('',(#606,#609),#595,.T.);
#611=CARTESIAN_POINT('',(24.999999999999993,16.500000000000000,0.0));
#612=DIRECTION('',(1.0,0.0,0.0));
#613=DIRECTION('',(0.0,0.0,-1.0));
#614=AXIS2_PLACEMENT_3D('',#611,#612,#613);
#615=PLANE('',#614);
#616=ORIENTED_EDGE('',*,*,#603,.T.);
#617=EDGE_LOOP('',(#616));
#618=FACE_OUTER_BOUND('',#617,.T.);
#619=CARTESIAN_POINT('',(24.999999999999993,15.999999999999996,0.0));
#620=VERTEX_POINT('',#619);
#621=CARTESIAN_POINT('',(24.999999999999993,0.0,0.0));
#622=DIRECTION('',(1.0,0.0,0.0));
#623=DIRECTION('',(0.0,1.0,0.0));
#624=AXIS2_PLACEMENT_3D('',#621,#622,#623);
#625=CIRCLE('',#624,15.999999999999996);
#626=EDGE_CURVE('',#620,#620,#625,.T.);
#627=ORIENTED_EDGE('',*,*,#626,.F.);
#628=EDGE_LOOP('',(#627));
#629=FACE_BOUND('',#628,.T.);
#630=ADVANCED_FACE('',(#618,#629),#615,.T.);
#631=CARTESIAN_POINT('',(12.499999999999996,0.0,0.0));
#632=DIRECTION('',(1.0,0.0,0.0));
#633=DIRECTION('',(0.0,1.0,0.0));
#634=AXIS2_PLACEMENT_3D('',#631,#632,#633);
#635=CYLINDRICAL_SURFACE('',#634,16.0);
#636=CARTESIAN_POINT('',(0.0,16.000000000000007,0.0));
#637=VERTEX_POINT('',#636);
#638=CARTESIAN_POINT('',(0.0,0.0,0.0));
#639=DIRECTION('',(1.0,0.0,0.0));
#640=DIRECTION('',(0.0,1.0,0.0));
#641=AXIS2_PLACEMENT_3D('',#638,#639,#640);
#642=CIRCLE('',#641,16.000000000000007);
#643=EDGE_CURVE('',#637,#637,#642,.T.);
#644=ORIENTED_EDGE('',*,*,#643,.F.);
#645=EDGE_LOOP('',(#644));
#646=FACE_OUTER_BOUND('',#645,.T.);
#647=ORIENTED_EDGE('',*,*,#626,.T.);
#648=EDGE_LOOP('',(#647));
#649=FACE_BOUND('',#648,.T.);
#650=ADVANCED_FACE('',(#646,#649),#635,.F.);
#651=CARTESIAN_POINT('',(-5.161215E-016,16.250000000000004,0.0));
#652=DIRECTION('',(-1.0,0.0,0.0));
#653=DIRECTION('',(0.0,0.0,1.0));
#654=AXIS2_PLACEMENT_3D('',#651,#652,#653);
#655=PLANE('',#654);
#656=ORIENTED_EDGE('',*,*,#534,.F.);
#657=EDGE_LOOP('',(#656));
#658=FACE_OUTER_BOUND('',#657,.T.);
#659=ORIENTED_EDGE('',*,*,#643,.T.);
#660=EDGE_LOOP('',(#659));
#661=FACE_BOUND('',#660,.T.);
#662=ADVANCED_FACE('',(#658,#661),#655,.T.);
#663=CLOSED_SHELL('',(#470,#490,#510,#538,#558,#578,#590,#610,#630,#650,#662));
#664=MANIFOLD_SOLID_BREP('',#663);
#665=STYLED_ITEM('',(#315),#664);
#666=ADVANCED_BREP_SHAPE_REPRESENTATION('ABSR',(#664),#363);
#667=SHAPE_REPRESENTATION_RELATIONSHIP('SRR','None',#666,#368);
#668=AXIS2_PLACEMENT_3D('',#669,#670,#671);
#669=CARTESIAN_POINT('',(24.999999999999986,0.0,0.0));
#670=DIRECTION('',(0.0,0.0,-1.0));
#671=DIRECTION('',(-1.0,0.0,0.0));
#672=NEXT_ASSEMBLY_USAGE_OCCURRENCE('ENG-007296-DN32:1','ENG-007296-DN32:1','ENG-007296-DN32:1',#12,#339,'ENG-007296-DN32:1');
#673=PRODUCT_DEFINITION_SHAPE('ENG-007296-DN32:1','ENG-007296-DN32:1',#672);
#674=ITEM_DEFINED_TRANSFORMATION('ENG-007296-DN32:1','ENG-007296-DN32:1',#364,#668);
#678=(REPRESENTATION_RELATIONSHIP('ENG-007296-DN32:1','ENG-007296-DN32:1',#368,#41)REPRESENTATION_RELATIONSHIP_WITH_TRANSFORMATION(#674)SHAPE_REPRESENTATION_RELATIONSHIP());
#679=CONTEXT_DEPENDENT_SHAPE_REPRESENTATION(#678,#673);
ENDSEC;
END-ISO-10303-21;
