ISO-10303-21;
HEADER;
/****************************************************************
 * Generated by software with PDE/Lib inside                    *
 * PDElib Version v51a, created Thu 12/14/2006                  *
 * International Technegroup Inc. (www.iti-oh.com)              *
 ****************************************************************/
FILE_DESCRIPTION((''),'2;1');
FILE_NAME('T:\\Arbeitspl\S\dtze\\Aushilfe\\KPeters\\3D\\Steps 08_10\\11800\\11800050X.stp','2010-08-04T14:18:21',('thilbrands'),(''),'Autodesk Inventor 2008','Autodesk Inventor 2008','');
FILE_SCHEMA(('AUTOMOTIVE_DESIGN { 1 0 10303 214 1 1 1 1 }'));
ENDSEC;
DATA;
#5=APPLICATION_CONTEXT('automotive design');
#6=APPLICATION_PROTOCOL_DEFINITION('International Standard','automotive_design',2001,#5);
#7=PRODUCT_CONTEXT('',#5,'mechanical');
#8=PRODUCT('118000101','118000101',$,(#7));
#9=PRODUCT_RELATED_PRODUCT_CATEGORY('part',$,(#8));
#10=PRODUCT_DEFINITION_FORMATION('',$,#8);
#11=PRODUCT_DEFINITION_CONTEXT('part definition',#5,'design');
#12=PRODUCT_DEFINITION('',$,#10,#11);
#18=(NAMED_UNIT(*)PLANE_ANGLE_UNIT()SI_UNIT($,.RADIAN.));
#19=DIMENSIONAL_EXPONENTS(0.0,0.0,0.0,0.0,0.0,0.0,0.0);
#20=PLANE_ANGLE_MEASURE_WITH_UNIT(PLANE_ANGLE_MEASURE(0.017453292500000),#18);
#24=(CONVERSION_BASED_UNIT('DEGREE',#20)NAMED_UNIT(#19)PLANE_ANGLE_UNIT());
#28=(NAMED_UNIT(*)SI_UNIT($,.STERADIAN.)SOLID_ANGLE_UNIT());
#32=(LENGTH_UNIT()NAMED_UNIT(*)SI_UNIT(.MILLI.,.METRE.));
#34=UNCERTAINTY_MEASURE_WITH_UNIT(LENGTH_MEASURE(0.010000000000000),#32,'DISTANCE_ACCURACY_VALUE','');
#36=(GEOMETRIC_REPRESENTATION_CONTEXT(3)GLOBAL_UNCERTAINTY_ASSIGNED_CONTEXT((#34))GLOBAL_UNIT_ASSIGNED_CONTEXT((#24,#28,#32))REPRESENTATION_CONTEXT('None','None'));
#37=AXIS2_PLACEMENT_3D('',#38,#39,#40);
#38=CARTESIAN_POINT('',(0.0,0.0,0.0));
#39=DIRECTION('',(0.0,0.0,1.0));
#40=DIRECTION('',(1.0,0.0,0.0));
#41=SHAPE_REPRESENTATION('',(#37),#36);
#42=PRODUCT_DEFINITION_SHAPE('','',#12);
#43=SHAPE_DEFINITION_REPRESENTATION(#42,#41);
#49=(NAMED_UNIT(*)PLANE_ANGLE_UNIT()SI_UNIT($,.RADIAN.));
#50=DIMENSIONAL_EXPONENTS(0.0,0.0,0.0,0.0,0.0,0.0,0.0);
#51=PLANE_ANGLE_MEASURE_WITH_UNIT(PLANE_ANGLE_MEASURE(0.017453292500000),#49);
#55=(CONVERSION_BASED_UNIT('DEGREE',#51)NAMED_UNIT(#50)PLANE_ANGLE_UNIT());
#59=(NAMED_UNIT(*)SI_UNIT($,.STERADIAN.)SOLID_ANGLE_UNIT());
#63=(LENGTH_UNIT()NAMED_UNIT(*)SI_UNIT(.MILLI.,.METRE.));
#65=UNCERTAINTY_MEASURE_WITH_UNIT(LENGTH_MEASURE(0.000001000000000),#63,'DISTANCE_ACCURACY_VALUE','');
#67=(GEOMETRIC_REPRESENTATION_CONTEXT(3)GLOBAL_UNCERTAINTY_ASSIGNED_CONTEXT((#65))GLOBAL_UNIT_ASSIGNED_CONTEXT((#55,#59,#63))REPRESENTATION_CONTEXT('','3D'));
#68=CARTESIAN_POINT('',(-14.000000000000004,12.750000000000002,0.0));
#69=DIRECTION('',(-1.0,0.0,0.0));
#70=DIRECTION('',(0.0,0.0,1.0));
#71=AXIS2_PLACEMENT_3D('',#68,#69,#70);
#72=PLANE('',#71);
#73=CARTESIAN_POINT('',(-14.000000000000007,25.500000000000004,0.0));
#74=VERTEX_POINT('',#73);
#75=CARTESIAN_POINT('',(-14.000000000000005,-1.665335E-015,0.0));
#76=DIRECTION('',(1.0,0.0,0.0));
#77=DIRECTION('',(0.0,1.0,0.0));
#78=AXIS2_PLACEMENT_3D('',#75,#76,#77);
#79=CIRCLE('',#78,25.500000000000004);
#80=EDGE_CURVE('',#74,#74,#79,.T.);
#81=ORIENTED_EDGE('',*,*,#80,.F.);
#82=EDGE_LOOP('',(#81));
#83=FACE_OUTER_BOUND('',#82,.T.);
#84=ADVANCED_FACE('',(#83),#72,.T.);
#85=CARTESIAN_POINT('',(-13.740077706418630,-1.634416E-015,0.0));
#86=DIRECTION('',(1.0,1.189525E-016,0.0));
#87=DIRECTION('',(0.0,1.0,0.0));
#88=AXIS2_PLACEMENT_3D('',#85,#86,#87);
#89=CONICAL_SURFACE('',#88,28.470925410288803,85.0);
#90=CARTESIAN_POINT('',(-13.480155412837259,31.441850820577599,0.0));
#91=VERTEX_POINT('',#90);
#92=CARTESIAN_POINT('',(-13.480155412837256,-1.603498E-015,0.0));
#93=DIRECTION('',(1.0,0.0,0.0));
#94=DIRECTION('',(0.0,1.0,0.0));
#95=AXIS2_PLACEMENT_3D('',#92,#93,#94);
#96=CIRCLE('',#95,31.441850820577599);
#97=EDGE_CURVE('',#91,#91,#96,.T.);
#98=ORIENTED_EDGE('',*,*,#97,.F.);
#99=EDGE_LOOP('',(#98));
#100=FACE_OUTER_BOUND('',#99,.T.);
#101=ORIENTED_EDGE('',*,*,#80,.T.);
#102=EDGE_LOOP('',(#101));
#103=FACE_BOUND('',#102,.T.);
#104=ADVANCED_FACE('',(#100,#103),#89,.T.);
#105=CARTESIAN_POINT('',(-8.240077706418630,-9.801776E-016,0.0));
#106=DIRECTION('',(1.0,1.189525E-016,0.0));
#107=DIRECTION('',(0.0,1.0,0.0));
#108=AXIS2_PLACEMENT_3D('',#105,#106,#107);
#109=CONICAL_SURFACE('',#108,32.845925410288800,15.000000000000002);
#110=CARTESIAN_POINT('',(-3.000000000000007,34.250000000000000,0.0));
#111=VERTEX_POINT('',#110);
#112=CARTESIAN_POINT('',(-3.000000000000003,-3.568574E-016,0.0));
#113=DIRECTION('',(1.0,0.0,0.0));
#114=DIRECTION('',(0.0,1.0,0.0));
#115=AXIS2_PLACEMENT_3D('',#112,#113,#114);
#116=CIRCLE('',#115,34.250000000000000);
#117=EDGE_CURVE('',#111,#111,#116,.T.);
#118=ORIENTED_EDGE('',*,*,#117,.F.);
#119=EDGE_LOOP('',(#118));
#120=FACE_OUTER_BOUND('',#119,.T.);
#121=ORIENTED_EDGE('',*,*,#97,.T.);
#122=EDGE_LOOP('',(#121));
#123=FACE_BOUND('',#122,.T.);
#124=ADVANCED_FACE('',(#120,#123),#109,.T.);
#125=CARTESIAN_POINT('',(-3.000000000000007,32.375000000000000,0.0));
#126=DIRECTION('',(1.0,0.0,0.0));
#127=DIRECTION('',(0.0,0.0,-1.0));
#128=AXIS2_PLACEMENT_3D('',#125,#126,#127);
#129=PLANE('',#128);
#130=ORIENTED_EDGE('',*,*,#117,.T.);
#131=EDGE_LOOP('',(#130));
#132=FACE_OUTER_BOUND('',#131,.T.);
#133=CARTESIAN_POINT('',(-3.000000000000007,30.500000000000004,0.0));
#134=VERTEX_POINT('',#133);
#135=CARTESIAN_POINT('',(-3.000000000000003,-3.568574E-016,0.0));
#136=DIRECTION('',(1.0,0.0,0.0));
#137=DIRECTION('',(0.0,1.0,0.0));
#138=AXIS2_PLACEMENT_3D('',#135,#136,#137);
#139=CIRCLE('',#138,30.500000000000004);
#140=EDGE_CURVE('',#134,#134,#139,.T.);
#141=ORIENTED_EDGE('',*,*,#140,.F.);
#142=EDGE_LOOP('',(#141));
#143=FACE_BOUND('',#142,.T.);
#144=ADVANCED_FACE('',(#132,#143),#129,.T.);
#145=CARTESIAN_POINT('',(-1.500000000000001,-1.784287E-016,0.0));
#146=DIRECTION('',(1.0,1.189525E-016,0.0));
#147=DIRECTION('',(0.0,1.0,0.0));
#148=AXIS2_PLACEMENT_3D('',#145,#146,#147);
#149=CYLINDRICAL_SURFACE('',#148,30.500000000000000);
#150=CARTESIAN_POINT('',(-5.551115E-015,30.500000000000000,0.0));
#151=VERTEX_POINT('',#150);
#152=CARTESIAN_POINT('',(0.0,0.0,0.0));
#153=DIRECTION('',(1.0,0.0,0.0));
#154=DIRECTION('',(0.0,1.0,0.0));
#155=AXIS2_PLACEMENT_3D('',#152,#153,#154);
#156=CIRCLE('',#155,30.500000000000000);
#157=EDGE_CURVE('',#151,#151,#156,.T.);
#158=ORIENTED_EDGE('',*,*,#157,.F.);
#159=EDGE_LOOP('',(#158));
#160=FACE_OUTER_BOUND('',#159,.T.);
#161=ORIENTED_EDGE('',*,*,#140,.T.);
#162=EDGE_LOOP('',(#161));
#163=FACE_BOUND('',#162,.T.);
#164=ADVANCED_FACE('',(#160,#163),#149,.T.);
#165=CARTESIAN_POINT('',(-2.775558E-015,15.250000000000000,0.0));
#166=DIRECTION('',(1.0,0.0,0.0));
#167=DIRECTION('',(0.0,0.0,-1.0));
#168=AXIS2_PLACEMENT_3D('',#165,#166,#167);
#169=PLANE('',#168);
#170=ORIENTED_EDGE('',*,*,#157,.T.);
#171=EDGE_LOOP('',(#170));
#172=FACE_OUTER_BOUND('',#171,.T.);
#173=ADVANCED_FACE('',(#172),#169,.T.);
#174=CLOSED_SHELL('',(#84,#104,#124,#144,#164,#173));
#175=MANIFOLD_SOLID_BREP('',#174);
#176=COLOUR_RGB('Metall - Stahl',0.639216005802155,0.639216005802155,0.686275005340576);
#177=FILL_AREA_STYLE_COLOUR('Metall - Stahl',#176);
#178=FILL_AREA_STYLE('Metall - Stahl',(#177));
#179=SURFACE_STYLE_FILL_AREA(#178);
#180=SURFACE_SIDE_STYLE('Metall - Stahl',(#179));
#181=SURFACE_STYLE_USAGE(.BOTH.,#180);
#182=PRESENTATION_STYLE_ASSIGNMENT((#181));
#183=STYLED_ITEM('',(#182),#175);
#184=MECHANICAL_DESIGN_GEOMETRIC_PRESENTATION_REPRESENTATION('',(#183),#36);
#185=ADVANCED_BREP_SHAPE_REPRESENTATION('ABSR',(#175),#36);
#186=SHAPE_REPRESENTATION_RELATIONSHIP('SRR','None',#185,#41);
ENDSEC;
END-ISO-10303-21;
