ISO-10303-21;
HEADER;
/****************************************************************
 * Generated by software with PDE/Lib inside                    *
 * PDElib Version v51a, created Thu 12/14/2006                  *
 * International Technegroup Inc. (www.iti-oh.com)              *
 ****************************************************************/
FILE_DESCRIPTION((''),'2;1');
FILE_NAME('T:\\Arbeitspl\S\dtze\\Aushilfe\\KPeters\\3D\\Steps 08_10\\15852\\15852038X.stp','2010-08-10T13:50:03',('thilbrands'),(''),'Autodesk Inventor 2008','Autodesk Inventor 2008','');
FILE_SCHEMA(('AUTOMOTIVE_DESIGN { 1 0 10303 214 1 1 1 1 }'));
ENDSEC;
DATA;
#5=APPLICATION_CONTEXT('automotive design');
#6=APPLICATION_PROTOCOL_DEFINITION('International Standard','automotive_design',2001,#5);
#7=PRODUCT_CONTEXT('',#5,'mechanical');
#8=PRODUCT('158520251','158520251',$,(#7));
#9=PRODUCT_RELATED_PRODUCT_CATEGORY('part',$,(#8));
#10=PRODUCT_DEFINITION_FORMATION('',$,#8);
#11=PRODUCT_DEFINITION_CONTEXT('part definition',#5,'design');
#12=PRODUCT_DEFINITION('',$,#10,#11);
#18=(NAMED_UNIT(*)PLANE_ANGLE_UNIT()SI_UNIT($,.RADIAN.));
#19=DIMENSIONAL_EXPONENTS(0.0,0.0,0.0,0.0,0.0,0.0,0.0);
#20=PLANE_ANGLE_MEASURE_WITH_UNIT(PLANE_ANGLE_MEASURE(0.017453292500000),#18);
#24=(CONVERSION_BASED_UNIT('DEGREE',#20)NAMED_UNIT(#19)PLANE_ANGLE_UNIT());
#28=(NAMED_UNIT(*)SI_UNIT($,.STERADIAN.)SOLID_ANGLE_UNIT());
#32=(LENGTH_UNIT()NAMED_UNIT(*)SI_UNIT(.MILLI.,.METRE.));
#34=UNCERTAINTY_MEASURE_WITH_UNIT(LENGTH_MEASURE(0.010000000000000),#32,'DISTANCE_ACCURACY_VALUE','');
#36=(GEOMETRIC_REPRESENTATION_CONTEXT(3)GLOBAL_UNCERTAINTY_ASSIGNED_CONTEXT((#34))GLOBAL_UNIT_ASSIGNED_CONTEXT((#24,#28,#32))REPRESENTATION_CONTEXT('None','None'));
#37=AXIS2_PLACEMENT_3D('',#38,#39,#40);
#38=CARTESIAN_POINT('',(0.0,0.0,0.0));
#39=DIRECTION('',(0.0,0.0,1.0));
#40=DIRECTION('',(1.0,0.0,0.0));
#41=SHAPE_REPRESENTATION('',(#37),#36);
#42=PRODUCT_DEFINITION_SHAPE('','',#12);
#43=SHAPE_DEFINITION_REPRESENTATION(#42,#41);
#49=(NAMED_UNIT(*)PLANE_ANGLE_UNIT()SI_UNIT($,.RADIAN.));
#50=DIMENSIONAL_EXPONENTS(0.0,0.0,0.0,0.0,0.0,0.0,0.0);
#51=PLANE_ANGLE_MEASURE_WITH_UNIT(PLANE_ANGLE_MEASURE(0.017453292500000),#49);
#55=(CONVERSION_BASED_UNIT('DEGREE',#51)NAMED_UNIT(#50)PLANE_ANGLE_UNIT());
#59=(NAMED_UNIT(*)SI_UNIT($,.STERADIAN.)SOLID_ANGLE_UNIT());
#63=(LENGTH_UNIT()NAMED_UNIT(*)SI_UNIT(.MILLI.,.METRE.));
#65=UNCERTAINTY_MEASURE_WITH_UNIT(LENGTH_MEASURE(0.000001000000000),#63,'DISTANCE_ACCURACY_VALUE','');
#67=(GEOMETRIC_REPRESENTATION_CONTEXT(3)GLOBAL_UNCERTAINTY_ASSIGNED_CONTEXT((#65))GLOBAL_UNIT_ASSIGNED_CONTEXT((#55,#59,#63))REPRESENTATION_CONTEXT('','3D'));
#68=CARTESIAN_POINT('',(-5.500000000000000,0.0,0.0));
#69=DIRECTION('',(1.0,0.0,0.0));
#70=DIRECTION('',(0.0,1.0,0.0));
#71=AXIS2_PLACEMENT_3D('',#68,#69,#70);
#72=CYLINDRICAL_SURFACE('',#71,17.750000000000000);
#73=CARTESIAN_POINT('',(-11.0,17.749999999999996,0.0));
#74=VERTEX_POINT('',#73);
#75=CARTESIAN_POINT('',(-11.0,0.0,0.0));
#76=DIRECTION('',(1.0,0.0,0.0));
#77=DIRECTION('',(0.0,1.0,0.0));
#78=AXIS2_PLACEMENT_3D('',#75,#76,#77);
#79=CIRCLE('',#78,17.749999999999996);
#80=EDGE_CURVE('',#74,#74,#79,.T.);
#81=ORIENTED_EDGE('',*,*,#80,.F.);
#82=EDGE_LOOP('',(#81));
#83=FACE_OUTER_BOUND('',#82,.T.);
#84=CARTESIAN_POINT('',(-1.110223E-015,17.750000000000004,0.0));
#85=VERTEX_POINT('',#84);
#86=CARTESIAN_POINT('',(-1.110223E-015,0.0,0.0));
#87=DIRECTION('',(1.0,0.0,0.0));
#88=DIRECTION('',(0.0,1.0,0.0));
#89=AXIS2_PLACEMENT_3D('',#86,#87,#88);
#90=CIRCLE('',#89,17.750000000000004);
#91=EDGE_CURVE('',#85,#85,#90,.T.);
#92=ORIENTED_EDGE('',*,*,#91,.T.);
#93=EDGE_LOOP('',(#92));
#94=FACE_BOUND('',#93,.T.);
#95=ADVANCED_FACE('',(#83,#94),#72,.F.);
#96=CARTESIAN_POINT('',(-11.000000000000004,22.375000000000000,0.0));
#97=DIRECTION('',(-1.0,0.0,0.0));
#98=DIRECTION('',(0.0,0.0,1.0));
#99=AXIS2_PLACEMENT_3D('',#96,#97,#98);
#100=PLANE('',#99);
#101=CARTESIAN_POINT('',(-11.000000000000005,27.0,0.0));
#102=VERTEX_POINT('',#101);
#103=CARTESIAN_POINT('',(-11.000000000000005,0.0,0.0));
#104=DIRECTION('',(1.0,0.0,0.0));
#105=DIRECTION('',(0.0,1.0,0.0));
#106=AXIS2_PLACEMENT_3D('',#103,#104,#105);
#107=CIRCLE('',#106,27.0);
#108=EDGE_CURVE('',#102,#102,#107,.T.);
#109=ORIENTED_EDGE('',*,*,#108,.F.);
#110=EDGE_LOOP('',(#109));
#111=FACE_OUTER_BOUND('',#110,.T.);
#112=ORIENTED_EDGE('',*,*,#80,.T.);
#113=EDGE_LOOP('',(#112));
#114=FACE_BOUND('',#113,.T.);
#115=ADVANCED_FACE('',(#111,#114),#100,.T.);
#116=CARTESIAN_POINT('',(-9.500000000000004,0.0,0.0));
#117=DIRECTION('',(1.0,0.0,0.0));
#118=DIRECTION('',(0.0,1.0,0.0));
#119=AXIS2_PLACEMENT_3D('',#116,#117,#118);
#120=CYLINDRICAL_SURFACE('',#119,27.0);
#121=CARTESIAN_POINT('',(-8.000000000000004,27.000000000000007,0.0));
#122=VERTEX_POINT('',#121);
#123=CARTESIAN_POINT('',(-8.000000000000004,0.0,0.0));
#124=DIRECTION('',(1.0,0.0,0.0));
#125=DIRECTION('',(0.0,1.0,0.0));
#126=AXIS2_PLACEMENT_3D('',#123,#124,#125);
#127=CIRCLE('',#126,27.000000000000007);
#128=EDGE_CURVE('',#122,#122,#127,.T.);
#129=ORIENTED_EDGE('',*,*,#128,.F.);
#130=EDGE_LOOP('',(#129));
#131=FACE_OUTER_BOUND('',#130,.T.);
#132=ORIENTED_EDGE('',*,*,#108,.T.);
#133=EDGE_LOOP('',(#132));
#134=FACE_BOUND('',#133,.T.);
#135=ADVANCED_FACE('',(#131,#134),#120,.T.);
#136=CARTESIAN_POINT('',(-8.000000000000004,24.100000000000001,0.0));
#137=DIRECTION('',(1.0,0.0,0.0));
#138=DIRECTION('',(0.0,0.0,-1.0));
#139=AXIS2_PLACEMENT_3D('',#136,#137,#138);
#140=PLANE('',#139);
#141=ORIENTED_EDGE('',*,*,#128,.T.);
#142=EDGE_LOOP('',(#141));
#143=FACE_OUTER_BOUND('',#142,.T.);
#144=CARTESIAN_POINT('',(-8.000000000000002,21.199999999999996,0.0));
#145=VERTEX_POINT('',#144);
#146=CARTESIAN_POINT('',(-8.000000000000002,0.0,0.0));
#147=DIRECTION('',(1.0,0.0,0.0));
#148=DIRECTION('',(0.0,1.0,0.0));
#149=AXIS2_PLACEMENT_3D('',#146,#147,#148);
#150=CIRCLE('',#149,21.199999999999996);
#151=EDGE_CURVE('',#145,#145,#150,.T.);
#152=ORIENTED_EDGE('',*,*,#151,.F.);
#153=EDGE_LOOP('',(#152));
#154=FACE_BOUND('',#153,.T.);
#155=ADVANCED_FACE('',(#143,#154),#140,.T.);
#156=CARTESIAN_POINT('',(-6.000000000000001,-2.351244E-015,19.199999999999996));
#157=CARTESIAN_POINT('',(-8.000000000000002,-2.351244E-015,19.199999999999996));
#158=CARTESIAN_POINT('',(-8.000000000000002,-2.596165E-015,21.199999999999996));
#159=CARTESIAN_POINT('',(-8.000000000000002,-2.841087E-015,23.199999999999996));
#160=CARTESIAN_POINT('',(-6.000000000000001,-2.841087E-015,23.199999999999996));
#161=CARTESIAN_POINT('',(-6.0,-19.199999999999996,19.199999999999989));
#162=CARTESIAN_POINT('',(-8.000000000000002,-19.199999999999996,19.199999999999989));
#163=CARTESIAN_POINT('',(-8.000000000000002,-21.199999999999996,21.199999999999989));
#164=CARTESIAN_POINT('',(-8.000000000000002,-23.199999999999996,23.199999999999989));
#165=CARTESIAN_POINT('',(-6.0,-23.199999999999999,23.199999999999989));
#166=CARTESIAN_POINT('',(-6.000000000000001,-19.199999999999996,-2.351244E-015));
#167=CARTESIAN_POINT('',(-8.000000000000002,-19.199999999999996,-2.351244E-015));
#168=CARTESIAN_POINT('',(-8.000000000000002,-21.199999999999996,-2.596165E-015));
#169=CARTESIAN_POINT('',(-8.000000000000002,-23.199999999999996,-2.841087E-015));
#170=CARTESIAN_POINT('',(-6.000000000000001,-23.199999999999996,-2.841087E-015));
#171=CARTESIAN_POINT('',(-6.0,-19.199999999999989,-19.199999999999996));
#172=CARTESIAN_POINT('',(-8.000000000000002,-19.199999999999989,-19.199999999999996));
#173=CARTESIAN_POINT('',(-8.000000000000002,-21.199999999999989,-21.199999999999996));
#174=CARTESIAN_POINT('',(-8.000000000000002,-23.199999999999989,-23.199999999999996));
#175=CARTESIAN_POINT('',(-6.0,-23.199999999999989,-23.199999999999999));
#176=CARTESIAN_POINT('',(-6.000000000000001,2.351244E-015,-19.199999999999996));
#177=CARTESIAN_POINT('',(-8.000000000000002,2.351244E-015,-19.199999999999996));
#178=CARTESIAN_POINT('',(-8.000000000000002,2.596165E-015,-21.199999999999996));
#179=CARTESIAN_POINT('',(-8.000000000000002,2.841087E-015,-23.199999999999996));
#180=CARTESIAN_POINT('',(-6.000000000000001,2.841087E-015,-23.199999999999996));
#181=CARTESIAN_POINT('',(-6.0,19.199999999999996,-19.199999999999989));
#182=CARTESIAN_POINT('',(-8.000000000000002,19.199999999999996,-19.199999999999989));
#183=CARTESIAN_POINT('',(-8.000000000000002,21.199999999999996,-21.199999999999989));
#184=CARTESIAN_POINT('',(-8.000000000000002,23.199999999999996,-23.199999999999989));
#185=CARTESIAN_POINT('',(-6.0,23.199999999999999,-23.199999999999989));
#186=CARTESIAN_POINT('',(-6.000000000000001,19.199999999999996,2.351244E-015));
#187=CARTESIAN_POINT('',(-8.000000000000002,19.199999999999996,2.351244E-015));
#188=CARTESIAN_POINT('',(-8.000000000000002,21.199999999999996,2.596165E-015));
#189=CARTESIAN_POINT('',(-8.000000000000002,23.199999999999996,2.841087E-015));
#190=CARTESIAN_POINT('',(-6.000000000000001,23.199999999999996,2.841087E-015));
#191=CARTESIAN_POINT('',(-6.0,19.199999999999989,19.199999999999996));
#192=CARTESIAN_POINT('',(-8.000000000000002,19.199999999999989,19.199999999999996));
#193=CARTESIAN_POINT('',(-8.000000000000002,21.199999999999989,21.199999999999996));
#194=CARTESIAN_POINT('',(-8.000000000000002,23.199999999999989,23.199999999999996));
#195=CARTESIAN_POINT('',(-6.0,23.199999999999989,23.199999999999999));
#196=CARTESIAN_POINT('',(-6.000000000000001,-2.351244E-015,19.199999999999996));
#197=CARTESIAN_POINT('',(-8.000000000000002,-2.351244E-015,19.199999999999996));
#198=CARTESIAN_POINT('',(-8.000000000000002,-2.596165E-015,21.199999999999996));
#199=CARTESIAN_POINT('',(-8.000000000000002,-2.841087E-015,23.199999999999996));
#200=CARTESIAN_POINT('',(-6.000000000000001,-2.841087E-015,23.199999999999996));
#208=(BOUNDED_SURFACE()B_SPLINE_SURFACE(2,2,((#156,#161,#166,#171,#176,#181,#186,#191,#196),(#157,#162,#167,#172,#177,#182,#187,#192,#197),(#158,#163,#168,#173,#178,#183,#188,#193,#198),(#159,#164,#169,#174,#179,#184,#189,#194,#199),(#160,#165,#170,#175,#180,#185,#190,#195,#200)),.UNSPECIFIED.,.F.,.T.,.U.)B_SPLINE_SURFACE_WITH_KNOTS((3,2,3),(3,2,2,2,3),(-3.141592653589794,-1.570796326794897,4.440892E-016),(0.0,1.570796326794897,3.141592653589793,4.712388980384690,6.283185307179586),.UNSPECIFIED.)GEOMETRIC_REPRESENTATION_ITEM()RATIONAL_B_SPLINE_SURFACE(((1.0,0.707106781186548,1.0,0.707106781186548,1.0,0.707106781186548,1.0,0.707106781186548,1.0),(0.707106781186549,0.500000000000001,0.707106781186549,0.500000000000001,0.707106781186549,0.500000000000001,0.707106781186549,0.500000000000001,0.707106781186549),(1.0,0.707106781186548,1.0,0.707106781186548,1.0,0.707106781186548,1.0,0.707106781186548,1.0),(0.707106781186549,0.500000000000001,0.707106781186549,0.500000000000001,0.707106781186549,0.500000000000001,0.707106781186549,0.500000000000001,0.707106781186549),(1.0,0.707106781186548,1.0,0.707106781186548,1.0,0.707106781186548,1.0,0.707106781186548,1.0)))REPRESENTATION_ITEM('')SURFACE());
#209=CARTESIAN_POINT('',(-6.000000000000001,19.199999999999999,0.0));
#210=VERTEX_POINT('',#209);
#211=CARTESIAN_POINT('',(-6.000000000000001,0.0,0.0));
#212=DIRECTION('',(1.0,0.0,0.0));
#213=DIRECTION('',(0.0,1.0,0.0));
#214=AXIS2_PLACEMENT_3D('',#211,#212,#213);
#215=CIRCLE('',#214,19.199999999999999);
#216=EDGE_CURVE('',#210,#210,#215,.T.);
#217=ORIENTED_EDGE('',*,*,#216,.F.);
#218=EDGE_LOOP('',(#217));
#219=FACE_OUTER_BOUND('',#218,.T.);
#220=ORIENTED_EDGE('',*,*,#151,.T.);
#221=EDGE_LOOP('',(#220));
#222=FACE_BOUND('',#221,.T.);
#223=ADVANCED_FACE('',(#219,#222),#208,.T.);
#224=CARTESIAN_POINT('',(-3.000000000000001,0.0,0.0));
#225=DIRECTION('',(1.0,0.0,0.0));
#226=DIRECTION('',(0.0,1.0,0.0));
#227=AXIS2_PLACEMENT_3D('',#224,#225,#226);
#228=CYLINDRICAL_SURFACE('',#227,19.199999999999999);
#229=CARTESIAN_POINT('',(-1.110223E-015,19.199999999999999,0.0));
#230=VERTEX_POINT('',#229);
#231=CARTESIAN_POINT('',(-1.110223E-015,0.0,0.0));
#232=DIRECTION('',(1.0,0.0,0.0));
#233=DIRECTION('',(0.0,1.0,0.0));
#234=AXIS2_PLACEMENT_3D('',#231,#232,#233);
#235=CIRCLE('',#234,19.199999999999999);
#236=EDGE_CURVE('',#230,#230,#235,.T.);
#237=ORIENTED_EDGE('',*,*,#236,.F.);
#238=EDGE_LOOP('',(#237));
#239=FACE_OUTER_BOUND('',#238,.T.);
#240=ORIENTED_EDGE('',*,*,#216,.T.);
#241=EDGE_LOOP('',(#240));
#242=FACE_BOUND('',#241,.T.);
#243=ADVANCED_FACE('',(#239,#242),#228,.T.);
#244=CARTESIAN_POINT('',(-1.110223E-015,18.475000000000001,0.0));
#245=DIRECTION('',(1.0,0.0,0.0));
#246=DIRECTION('',(0.0,0.0,-1.0));
#247=AXIS2_PLACEMENT_3D('',#244,#245,#246);
#248=PLANE('',#247);
#249=ORIENTED_EDGE('',*,*,#236,.T.);
#250=EDGE_LOOP('',(#249));
#251=FACE_OUTER_BOUND('',#250,.T.);
#252=ORIENTED_EDGE('',*,*,#91,.F.);
#253=EDGE_LOOP('',(#252));
#254=FACE_BOUND('',#253,.T.);
#255=ADVANCED_FACE('',(#251,#254),#248,.T.);
#256=CLOSED_SHELL('',(#95,#115,#135,#155,#223,#243,#255));
#257=MANIFOLD_SOLID_BREP('',#256);
#258=COLOUR_RGB('Metall - Stahl',0.639216005802155,0.639216005802155,0.686275005340576);
#259=FILL_AREA_STYLE_COLOUR('Metall - Stahl',#258);
#260=FILL_AREA_STYLE('Metall - Stahl',(#259));
#261=SURFACE_STYLE_FILL_AREA(#260);
#262=SURFACE_SIDE_STYLE('Metall - Stahl',(#261));
#263=SURFACE_STYLE_USAGE(.BOTH.,#262);
#264=PRESENTATION_STYLE_ASSIGNMENT((#263));
#265=STYLED_ITEM('',(#264),#257);
#266=MECHANICAL_DESIGN_GEOMETRIC_PRESENTATION_REPRESENTATION('',(#265),#36);
#267=ADVANCED_BREP_SHAPE_REPRESENTATION('ABSR',(#257),#36);
#268=SHAPE_REPRESENTATION_RELATIONSHIP('SRR','None',#267,#41);
ENDSEC;
END-ISO-10303-21;
