ISO-10303-21;
HEADER;
/* Generated by software containing ST-Developer
 * from STEP Tools, Inc. (www.steptools.com) 
 */

FILE_DESCRIPTION(
/* description */ (''),
/* implementation_level */ '2;1');

FILE_NAME(
/* name */ 'Z:\\Geberit\\Export\\NewStep\\34121.stp',
/* time_stamp */ '2014-04-01T20:30:48+02:00',
/* author */ ('bruh'),
/* organization */ (''),
/* preprocessor_version */ 'ST-DEVELOPER v15.2',
/* originating_system */ 'Autodesk Inventor 2014',
/* authorisation */ '');

FILE_SCHEMA (('AUTOMOTIVE_DESIGN { 1 0 10303 214 3 1 1 }'));
ENDSEC;

DATA;
#10=ITEM_DEFINED_TRANSFORMATION($,$,#261,#307);
#11=(
REPRESENTATION_RELATIONSHIP($,$,#486,#487)
REPRESENTATION_RELATIONSHIP_WITH_TRANSFORMATION(#10)
SHAPE_REPRESENTATION_RELATIONSHIP()
);
#12=CONTEXT_DEPENDENT_SHAPE_REPRESENTATION(#11,#485);
#13=NEXT_ASSEMBLY_USAGE_OCCURRENCE('432110:1',$,$,#490,#489,$);
#14=SHAPE_REPRESENTATION_RELATIONSHIP('SRR','None',#486,#15);
#15=ADVANCED_BREP_SHAPE_REPRESENTATION($,(#260),#473);
#16=STYLED_ITEM($,(#498),#260);
#17=TOROIDAL_SURFACE($,#269,48.75,4.1);
#18=TOROIDAL_SURFACE($,#273,46.75,2.);
#19=TOROIDAL_SURFACE($,#278,48.75,6.);
#20=TOROIDAL_SURFACE($,#290,48.75,4.1);
#21=TOROIDAL_SURFACE($,#294,46.75,2.);
#22=TOROIDAL_SURFACE($,#301,48.75,6.);
#23=PLANE($,#267);
#24=PLANE($,#280);
#25=PLANE($,#288);
#26=PLANE($,#303);
#27=CONICAL_SURFACE($,#265,45.6999999999998,44.9999999999669);
#28=CONICAL_SURFACE($,#271,48.6204894511828,34.0000000000001);
#29=CONICAL_SURFACE($,#275,50.2371127176651,34.);
#30=CONICAL_SURFACE($,#282,45.7000000000002,45.0000000000343);
#31=CONICAL_SURFACE($,#286,45.6999999999998,44.9999999999669);
#32=CONICAL_SURFACE($,#292,48.6204894511828,34.0000000000001);
#33=CONICAL_SURFACE($,#299,50.2371127176651,34.);
#34=CONICAL_SURFACE($,#305,45.7000000000002,45.0000000000343);
#35=FACE_BOUND($,#80,.T.);
#36=FACE_BOUND($,#82,.T.);
#37=FACE_BOUND($,#84,.T.);
#38=FACE_BOUND($,#86,.T.);
#39=FACE_BOUND($,#88,.T.);
#40=FACE_BOUND($,#90,.T.);
#41=FACE_BOUND($,#92,.T.);
#42=FACE_BOUND($,#94,.T.);
#43=FACE_BOUND($,#95,.T.);
#44=FACE_BOUND($,#96,.T.);
#45=FACE_BOUND($,#98,.T.);
#46=FACE_BOUND($,#100,.T.);
#47=FACE_BOUND($,#102,.T.);
#48=FACE_BOUND($,#104,.T.);
#49=FACE_BOUND($,#106,.T.);
#50=FACE_BOUND($,#108,.T.);
#51=FACE_BOUND($,#110,.T.);
#52=FACE_BOUND($,#112,.T.);
#53=FACE_BOUND($,#114,.T.);
#54=FACE_BOUND($,#116,.T.);
#55=FACE_BOUND($,#118,.T.);
#56=FACE_BOUND($,#119,.T.);
#57=FACE_BOUND($,#120,.T.);
#58=FACE_BOUND($,#122,.T.);
#59=FACE_OUTER_BOUND($,#79,.T.);
#60=FACE_OUTER_BOUND($,#81,.T.);
#61=FACE_OUTER_BOUND($,#83,.T.);
#62=FACE_OUTER_BOUND($,#85,.T.);
#63=FACE_OUTER_BOUND($,#87,.T.);
#64=FACE_OUTER_BOUND($,#89,.T.);
#65=FACE_OUTER_BOUND($,#91,.T.);
#66=FACE_OUTER_BOUND($,#93,.T.);
#67=FACE_OUTER_BOUND($,#97,.T.);
#68=FACE_OUTER_BOUND($,#99,.T.);
#69=FACE_OUTER_BOUND($,#101,.T.);
#70=FACE_OUTER_BOUND($,#103,.T.);
#71=FACE_OUTER_BOUND($,#105,.T.);
#72=FACE_OUTER_BOUND($,#107,.T.);
#73=FACE_OUTER_BOUND($,#109,.T.);
#74=FACE_OUTER_BOUND($,#111,.T.);
#75=FACE_OUTER_BOUND($,#113,.T.);
#76=FACE_OUTER_BOUND($,#115,.T.);
#77=FACE_OUTER_BOUND($,#117,.T.);
#78=FACE_OUTER_BOUND($,#121,.T.);
#79=EDGE_LOOP($,(#189));
#80=EDGE_LOOP($,(#190));
#81=EDGE_LOOP($,(#191));
#82=EDGE_LOOP($,(#192));
#83=EDGE_LOOP($,(#193));
#84=EDGE_LOOP($,(#194));
#85=EDGE_LOOP($,(#195));
#86=EDGE_LOOP($,(#196));
#87=EDGE_LOOP($,(#197));
#88=EDGE_LOOP($,(#198));
#89=EDGE_LOOP($,(#199));
#90=EDGE_LOOP($,(#200));
#91=EDGE_LOOP($,(#201));
#92=EDGE_LOOP($,(#202));
#93=EDGE_LOOP($,(#203));
#94=EDGE_LOOP($,(#204));
#95=EDGE_LOOP($,(#205));
#96=EDGE_LOOP($,(#206));
#97=EDGE_LOOP($,(#207));
#98=EDGE_LOOP($,(#208));
#99=EDGE_LOOP($,(#209));
#100=EDGE_LOOP($,(#210));
#101=EDGE_LOOP($,(#211));
#102=EDGE_LOOP($,(#212));
#103=EDGE_LOOP($,(#213));
#104=EDGE_LOOP($,(#214));
#105=EDGE_LOOP($,(#215));
#106=EDGE_LOOP($,(#216));
#107=EDGE_LOOP($,(#217));
#108=EDGE_LOOP($,(#218));
#109=EDGE_LOOP($,(#219));
#110=EDGE_LOOP($,(#220));
#111=EDGE_LOOP($,(#221));
#112=EDGE_LOOP($,(#222));
#113=EDGE_LOOP($,(#223));
#114=EDGE_LOOP($,(#224));
#115=EDGE_LOOP($,(#225));
#116=EDGE_LOOP($,(#226));
#117=EDGE_LOOP($,(#227));
#118=EDGE_LOOP($,(#228));
#119=EDGE_LOOP($,(#229));
#120=EDGE_LOOP($,(#230));
#121=EDGE_LOOP($,(#231));
#122=EDGE_LOOP($,(#232));
#123=CIRCLE($,#263,45.5);
#124=CIRCLE($,#264,45.5);
#125=CIRCLE($,#266,45.8999999999996);
#126=CIRCLE($,#268,48.75);
#127=CIRCLE($,#270,52.1490540474757);
#128=CIRCLE($,#272,45.0919248548899);
#129=CIRCLE($,#274,44.75);
#130=CIRCLE($,#276,53.7242254353302);
#131=CIRCLE($,#277,46.75);
#132=CIRCLE($,#279,48.75);
#133=CIRCLE($,#281,45.9000000000004);
#134=CIRCLE($,#284,45.5);
#135=CIRCLE($,#285,45.5);
#136=CIRCLE($,#287,45.8999999999996);
#137=CIRCLE($,#289,48.75);
#138=CIRCLE($,#291,52.1490540474757);
#139=CIRCLE($,#293,45.0919248548899);
#140=CIRCLE($,#295,44.75);
#141=CIRCLE($,#298,46.75);
#142=CIRCLE($,#300,53.7242254353302);
#143=CIRCLE($,#302,48.75);
#144=CIRCLE($,#304,45.9000000000004);
#145=VERTEX_POINT($,#404);
#146=VERTEX_POINT($,#406);
#147=VERTEX_POINT($,#409);
#148=VERTEX_POINT($,#412);
#149=VERTEX_POINT($,#415);
#150=VERTEX_POINT($,#418);
#151=VERTEX_POINT($,#421);
#152=VERTEX_POINT($,#424);
#153=VERTEX_POINT($,#426);
#154=VERTEX_POINT($,#429);
#155=VERTEX_POINT($,#432);
#156=VERTEX_POINT($,#436);
#157=VERTEX_POINT($,#438);
#158=VERTEX_POINT($,#441);
#159=VERTEX_POINT($,#444);
#160=VERTEX_POINT($,#447);
#161=VERTEX_POINT($,#450);
#162=VERTEX_POINT($,#453);
#163=VERTEX_POINT($,#457);
#164=VERTEX_POINT($,#460);
#165=VERTEX_POINT($,#463);
#166=VERTEX_POINT($,#466);
#167=EDGE_CURVE($,#145,#145,#123,.T.);
#168=EDGE_CURVE($,#146,#146,#124,.T.);
#169=EDGE_CURVE($,#147,#147,#125,.T.);
#170=EDGE_CURVE($,#148,#148,#126,.T.);
#171=EDGE_CURVE($,#149,#149,#127,.T.);
#172=EDGE_CURVE($,#150,#150,#128,.T.);
#173=EDGE_CURVE($,#151,#151,#129,.T.);
#174=EDGE_CURVE($,#152,#152,#130,.T.);
#175=EDGE_CURVE($,#153,#153,#131,.T.);
#176=EDGE_CURVE($,#154,#154,#132,.T.);
#177=EDGE_CURVE($,#155,#155,#133,.T.);
#178=EDGE_CURVE($,#156,#156,#134,.T.);
#179=EDGE_CURVE($,#157,#157,#135,.T.);
#180=EDGE_CURVE($,#158,#158,#136,.T.);
#181=EDGE_CURVE($,#159,#159,#137,.T.);
#182=EDGE_CURVE($,#160,#160,#138,.T.);
#183=EDGE_CURVE($,#161,#161,#139,.T.);
#184=EDGE_CURVE($,#162,#162,#140,.T.);
#185=EDGE_CURVE($,#163,#163,#141,.T.);
#186=EDGE_CURVE($,#164,#164,#142,.T.);
#187=EDGE_CURVE($,#165,#165,#143,.T.);
#188=EDGE_CURVE($,#166,#166,#144,.T.);
#189=ORIENTED_EDGE($,*,*,#167,.T.);
#190=ORIENTED_EDGE($,*,*,#168,.F.);
#191=ORIENTED_EDGE($,*,*,#169,.T.);
#192=ORIENTED_EDGE($,*,*,#167,.F.);
#193=ORIENTED_EDGE($,*,*,#170,.T.);
#194=ORIENTED_EDGE($,*,*,#169,.F.);
#195=ORIENTED_EDGE($,*,*,#171,.T.);
#196=ORIENTED_EDGE($,*,*,#170,.F.);
#197=ORIENTED_EDGE($,*,*,#172,.T.);
#198=ORIENTED_EDGE($,*,*,#171,.F.);
#199=ORIENTED_EDGE($,*,*,#173,.T.);
#200=ORIENTED_EDGE($,*,*,#172,.F.);
#201=ORIENTED_EDGE($,*,*,#174,.T.);
#202=ORIENTED_EDGE($,*,*,#175,.F.);
#203=ORIENTED_EDGE($,*,*,#176,.T.);
#204=ORIENTED_EDGE($,*,*,#174,.F.);
#205=ORIENTED_EDGE($,*,*,#177,.T.);
#206=ORIENTED_EDGE($,*,*,#176,.F.);
#207=ORIENTED_EDGE($,*,*,#168,.T.);
#208=ORIENTED_EDGE($,*,*,#177,.F.);
#209=ORIENTED_EDGE($,*,*,#178,.F.);
#210=ORIENTED_EDGE($,*,*,#179,.T.);
#211=ORIENTED_EDGE($,*,*,#180,.F.);
#212=ORIENTED_EDGE($,*,*,#178,.T.);
#213=ORIENTED_EDGE($,*,*,#181,.F.);
#214=ORIENTED_EDGE($,*,*,#180,.T.);
#215=ORIENTED_EDGE($,*,*,#182,.F.);
#216=ORIENTED_EDGE($,*,*,#181,.T.);
#217=ORIENTED_EDGE($,*,*,#183,.F.);
#218=ORIENTED_EDGE($,*,*,#182,.T.);
#219=ORIENTED_EDGE($,*,*,#184,.F.);
#220=ORIENTED_EDGE($,*,*,#183,.T.);
#221=ORIENTED_EDGE($,*,*,#173,.F.);
#222=ORIENTED_EDGE($,*,*,#184,.T.);
#223=ORIENTED_EDGE($,*,*,#175,.T.);
#224=ORIENTED_EDGE($,*,*,#185,.F.);
#225=ORIENTED_EDGE($,*,*,#186,.F.);
#226=ORIENTED_EDGE($,*,*,#185,.T.);
#227=ORIENTED_EDGE($,*,*,#187,.F.);
#228=ORIENTED_EDGE($,*,*,#186,.T.);
#229=ORIENTED_EDGE($,*,*,#188,.F.);
#230=ORIENTED_EDGE($,*,*,#187,.T.);
#231=ORIENTED_EDGE($,*,*,#179,.F.);
#232=ORIENTED_EDGE($,*,*,#188,.T.);
#233=CYLINDRICAL_SURFACE($,#262,45.5);
#234=CYLINDRICAL_SURFACE($,#283,45.5);
#235=CYLINDRICAL_SURFACE($,#296,44.75);
#236=CYLINDRICAL_SURFACE($,#297,46.75);
#237=ADVANCED_FACE($,(#59,#35),#233,.F.);
#238=ADVANCED_FACE($,(#60,#36),#27,.F.);
#239=ADVANCED_FACE($,(#61,#37),#23,.F.);
#240=ADVANCED_FACE($,(#62,#38),#17,.F.);
#241=ADVANCED_FACE($,(#63,#39),#28,.F.);
#242=ADVANCED_FACE($,(#64,#40),#18,.T.);
#243=ADVANCED_FACE($,(#65,#41),#29,.T.);
#244=ADVANCED_FACE($,(#66,#42),#19,.T.);
#245=ADVANCED_FACE($,(#43,#44),#24,.F.);
#246=ADVANCED_FACE($,(#67,#45),#30,.F.);
#247=ADVANCED_FACE($,(#68,#46),#234,.F.);
#248=ADVANCED_FACE($,(#69,#47),#31,.F.);
#249=ADVANCED_FACE($,(#70,#48),#25,.T.);
#250=ADVANCED_FACE($,(#71,#49),#20,.F.);
#251=ADVANCED_FACE($,(#72,#50),#32,.F.);
#252=ADVANCED_FACE($,(#73,#51),#21,.T.);
#253=ADVANCED_FACE($,(#74,#52),#235,.F.);
#254=ADVANCED_FACE($,(#75,#53),#236,.T.);
#255=ADVANCED_FACE($,(#76,#54),#33,.T.);
#256=ADVANCED_FACE($,(#77,#55),#22,.T.);
#257=ADVANCED_FACE($,(#56,#57),#26,.T.);
#258=ADVANCED_FACE($,(#78,#58),#34,.F.);
#259=CLOSED_SHELL($,(#237,#238,#239,#240,#241,#242,#243,#244,#245,#246,
#247,#248,#249,#250,#251,#252,#253,#254,#255,#256,#257,#258));
#260=MANIFOLD_SOLID_BREP('Volumenk\X\F6rper1',#259);
#261=AXIS2_PLACEMENT_3D('placement',#402,#308,#309);
#262=AXIS2_PLACEMENT_3D($,#403,#310,#311);
#263=AXIS2_PLACEMENT_3D($,#405,#312,#313);
#264=AXIS2_PLACEMENT_3D($,#407,#314,#315);
#265=AXIS2_PLACEMENT_3D($,#408,#316,#317);
#266=AXIS2_PLACEMENT_3D($,#410,#318,#319);
#267=AXIS2_PLACEMENT_3D($,#411,#320,#321);
#268=AXIS2_PLACEMENT_3D($,#413,#322,#323);
#269=AXIS2_PLACEMENT_3D($,#414,#324,#325);
#270=AXIS2_PLACEMENT_3D($,#416,#326,#327);
#271=AXIS2_PLACEMENT_3D($,#417,#328,#329);
#272=AXIS2_PLACEMENT_3D($,#419,#330,#331);
#273=AXIS2_PLACEMENT_3D($,#420,#332,#333);
#274=AXIS2_PLACEMENT_3D($,#422,#334,#335);
#275=AXIS2_PLACEMENT_3D($,#423,#336,#337);
#276=AXIS2_PLACEMENT_3D($,#425,#338,#339);
#277=AXIS2_PLACEMENT_3D($,#427,#340,#341);
#278=AXIS2_PLACEMENT_3D($,#428,#342,#343);
#279=AXIS2_PLACEMENT_3D($,#430,#344,#345);
#280=AXIS2_PLACEMENT_3D($,#431,#346,#347);
#281=AXIS2_PLACEMENT_3D($,#433,#348,#349);
#282=AXIS2_PLACEMENT_3D($,#434,#350,#351);
#283=AXIS2_PLACEMENT_3D($,#435,#352,#353);
#284=AXIS2_PLACEMENT_3D($,#437,#354,#355);
#285=AXIS2_PLACEMENT_3D($,#439,#356,#357);
#286=AXIS2_PLACEMENT_3D($,#440,#358,#359);
#287=AXIS2_PLACEMENT_3D($,#442,#360,#361);
#288=AXIS2_PLACEMENT_3D($,#443,#362,#363);
#289=AXIS2_PLACEMENT_3D($,#445,#364,#365);
#290=AXIS2_PLACEMENT_3D($,#446,#366,#367);
#291=AXIS2_PLACEMENT_3D($,#448,#368,#369);
#292=AXIS2_PLACEMENT_3D($,#449,#370,#371);
#293=AXIS2_PLACEMENT_3D($,#451,#372,#373);
#294=AXIS2_PLACEMENT_3D($,#452,#374,#375);
#295=AXIS2_PLACEMENT_3D($,#454,#376,#377);
#296=AXIS2_PLACEMENT_3D($,#455,#378,#379);
#297=AXIS2_PLACEMENT_3D($,#456,#380,#381);
#298=AXIS2_PLACEMENT_3D($,#458,#382,#383);
#299=AXIS2_PLACEMENT_3D($,#459,#384,#385);
#300=AXIS2_PLACEMENT_3D($,#461,#386,#387);
#301=AXIS2_PLACEMENT_3D($,#462,#388,#389);
#302=AXIS2_PLACEMENT_3D($,#464,#390,#391);
#303=AXIS2_PLACEMENT_3D($,#465,#392,#393);
#304=AXIS2_PLACEMENT_3D($,#467,#394,#395);
#305=AXIS2_PLACEMENT_3D($,#468,#396,#397);
#306=AXIS2_PLACEMENT_3D('placement',#469,#398,#399);
#307=AXIS2_PLACEMENT_3D($,#470,#400,#401);
#308=DIRECTION('axis',(0.,0.,1.));
#309=DIRECTION('refdir',(1.,0.,0.));
#310=DIRECTION('center_axis',(-1.,0.,1.7741688288759E-013));
#311=DIRECTION('ref_axis',(1.77250578033496E-013,0.,1.));
#312=DIRECTION('center_axis',(-1.,0.,1.7741688288759E-013));
#313=DIRECTION('ref_axis',(1.77250578033496E-013,0.,1.));
#314=DIRECTION('center_axis',(-1.,0.,1.7741688288759E-013));
#315=DIRECTION('ref_axis',(1.77250578033496E-013,0.,1.));
#316=DIRECTION('center_axis',(-1.,0.,1.7741688288759E-013));
#317=DIRECTION('ref_axis',(1.77250578033496E-013,0.,1.));
#318=DIRECTION('center_axis',(-1.,0.,1.7741688288759E-013));
#319=DIRECTION('ref_axis',(1.77250578033496E-013,0.,1.));
#320=DIRECTION('center_axis',(1.,0.,-1.7741688288759E-013));
#321=DIRECTION('ref_axis',(-1.76214598468505E-013,0.,-1.));
#322=DIRECTION('center_axis',(-1.,0.,1.7741688288759E-013));
#323=DIRECTION('ref_axis',(1.77250578033496E-013,0.,1.));
#324=DIRECTION('center_axis',(1.,0.,-1.7741688288759E-013));
#325=DIRECTION('ref_axis',(1.77467627474613E-013,0.,1.));
#326=DIRECTION('center_axis',(-1.,0.,1.7741688288759E-013));
#327=DIRECTION('ref_axis',(1.77250578033496E-013,0.,1.));
#328=DIRECTION('center_axis',(1.,0.,-1.7741688288759E-013));
#329=DIRECTION('ref_axis',(1.77250578033496E-013,0.,1.));
#330=DIRECTION('center_axis',(-1.,0.,1.7741688288759E-013));
#331=DIRECTION('ref_axis',(1.77250578033496E-013,0.,1.));
#332=DIRECTION('center_axis',(1.,0.,-1.7741688288759E-013));
#333=DIRECTION('ref_axis',(1.77526369672985E-013,0.,1.));
#334=DIRECTION('center_axis',(-1.,0.,1.7741688288759E-013));
#335=DIRECTION('ref_axis',(1.77250578033496E-013,0.,1.));
#336=DIRECTION('center_axis',(1.,0.,-1.7741688288759E-013));
#337=DIRECTION('ref_axis',(1.77250578033496E-013,0.,1.));
#338=DIRECTION('center_axis',(-1.,0.,1.7741688288759E-013));
#339=DIRECTION('ref_axis',(1.77250578033496E-013,0.,1.));
#340=DIRECTION('center_axis',(-1.,0.,1.7741688288759E-013));
#341=DIRECTION('ref_axis',(1.77250578033496E-013,0.,1.));
#342=DIRECTION('center_axis',(1.,0.,-1.7741688288759E-013));
#343=DIRECTION('ref_axis',(1.77538349318688E-013,0.,1.));
#344=DIRECTION('center_axis',(-1.,0.,1.7741688288759E-013));
#345=DIRECTION('ref_axis',(1.77250578033496E-013,0.,1.));
#346=DIRECTION('center_axis',(-1.,0.,1.7741688288759E-013));
#347=DIRECTION('ref_axis',(1.76214598468505E-013,0.,1.));
#348=DIRECTION('center_axis',(-1.,0.,1.7741688288759E-013));
#349=DIRECTION('ref_axis',(1.77250578033496E-013,0.,1.));
#350=DIRECTION('center_axis',(1.,0.,-1.7741688288759E-013));
#351=DIRECTION('ref_axis',(1.77250578033496E-013,0.,1.));
#352=DIRECTION('center_axis',(-1.,0.,-1.7741688288759E-013));
#353=DIRECTION('ref_axis',(-1.77250578033496E-013,0.,1.));
#354=DIRECTION('center_axis',(-1.,0.,-1.7741688288759E-013));
#355=DIRECTION('ref_axis',(-1.77250578033496E-013,0.,1.));
#356=DIRECTION('center_axis',(-1.,0.,-1.7741688288759E-013));
#357=DIRECTION('ref_axis',(-1.77250578033496E-013,0.,1.));
#358=DIRECTION('center_axis',(1.,0.,1.7741688288759E-013));
#359=DIRECTION('ref_axis',(-1.77250578033496E-013,0.,1.));
#360=DIRECTION('center_axis',(-1.,0.,-1.7741688288759E-013));
#361=DIRECTION('ref_axis',(-1.77250578033496E-013,0.,1.));
#362=DIRECTION('center_axis',(1.,0.,1.7741688288759E-013));
#363=DIRECTION('ref_axis',(1.76214598468505E-013,0.,-1.));
#364=DIRECTION('center_axis',(-1.,0.,-1.7741688288759E-013));
#365=DIRECTION('ref_axis',(-1.77250578033496E-013,0.,1.));
#366=DIRECTION('center_axis',(-1.,0.,-1.7741688288759E-013));
#367=DIRECTION('ref_axis',(-1.77467627474613E-013,0.,1.));
#368=DIRECTION('center_axis',(-1.,0.,-1.7741688288759E-013));
#369=DIRECTION('ref_axis',(-1.77250578033496E-013,0.,1.));
#370=DIRECTION('center_axis',(-1.,0.,-1.7741688288759E-013));
#371=DIRECTION('ref_axis',(-1.77250578033496E-013,0.,1.));
#372=DIRECTION('center_axis',(-1.,0.,-1.7741688288759E-013));
#373=DIRECTION('ref_axis',(-1.77250578033496E-013,0.,1.));
#374=DIRECTION('center_axis',(-1.,0.,-1.7741688288759E-013));
#375=DIRECTION('ref_axis',(-1.77526369672985E-013,0.,1.));
#376=DIRECTION('center_axis',(-1.,0.,-1.7741688288759E-013));
#377=DIRECTION('ref_axis',(-1.77250578033496E-013,0.,1.));
#378=DIRECTION('center_axis',(-1.,0.,-1.7741688288759E-013));
#379=DIRECTION('ref_axis',(-1.77250578033496E-013,0.,1.));
#380=DIRECTION('center_axis',(-1.,0.,-1.7741688288759E-013));
#381=DIRECTION('ref_axis',(-1.77250578033496E-013,0.,1.));
#382=DIRECTION('center_axis',(-1.,0.,-1.7741688288759E-013));
#383=DIRECTION('ref_axis',(-1.77250578033496E-013,0.,1.));
#384=DIRECTION('center_axis',(-1.,0.,-1.7741688288759E-013));
#385=DIRECTION('ref_axis',(-1.77250578033496E-013,0.,1.));
#386=DIRECTION('center_axis',(-1.,0.,-1.7741688288759E-013));
#387=DIRECTION('ref_axis',(-1.77250578033496E-013,0.,1.));
#388=DIRECTION('center_axis',(-1.,0.,-1.7741688288759E-013));
#389=DIRECTION('ref_axis',(-1.77538349318688E-013,0.,1.));
#390=DIRECTION('center_axis',(-1.,0.,-1.7741688288759E-013));
#391=DIRECTION('ref_axis',(-1.77250578033496E-013,0.,1.));
#392=DIRECTION('center_axis',(-1.,0.,-1.7741688288759E-013));
#393=DIRECTION('ref_axis',(-1.76214598468505E-013,0.,1.));
#394=DIRECTION('center_axis',(-1.,0.,-1.7741688288759E-013));
#395=DIRECTION('ref_axis',(-1.77250578033496E-013,0.,1.));
#396=DIRECTION('center_axis',(-1.,0.,-1.7741688288759E-013));
#397=DIRECTION('ref_axis',(-1.77250578033496E-013,0.,1.));
#398=DIRECTION('axis',(0.,0.,1.));
#399=DIRECTION('refdir',(1.,0.,0.));
#400=DIRECTION($,(0.,0.,1.));
#401=DIRECTION($,(1.,0.,0.));
#402=CARTESIAN_POINT('',(0.,0.,0.));
#403=CARTESIAN_POINT('Origin',(129.05,0.,-2.28956487366436E-011));
#404=CARTESIAN_POINT('',(128.500000000008,0.,45.4999999999772));
#405=CARTESIAN_POINT('Origin',(128.5,0.,-2.27980694510554E-011));
#406=CARTESIAN_POINT('',(129.600000000008,0.,45.499999999977));
#407=CARTESIAN_POINT('Origin',(129.6,0.,-2.29932280222317E-011));
#408=CARTESIAN_POINT('Origin',(128.3,0.,-2.27625860744779E-011));
#409=CARTESIAN_POINT('',(128.100000000008,0.,45.8999999999769));
#410=CARTESIAN_POINT('Origin',(128.1,0.,-2.27271026979003E-011));
#411=CARTESIAN_POINT('Origin',(128.100000000008,0.,47.3249999999771));
#412=CARTESIAN_POINT('',(128.100000000009,0.,48.7499999999773));
#413=CARTESIAN_POINT('Origin',(128.1,0.,-2.27271026979003E-011));
#414=CARTESIAN_POINT('Origin',(124.,0.,-2.20001794559721E-011));
#415=CARTESIAN_POINT('',(121.707309095779,0.,52.1490540474541));
#416=CARTESIAN_POINT('Origin',(121.70730909577,0.,-2.1592931404408E-011));
#417=CARTESIAN_POINT('Origin',(116.47599695043,0.,-2.06648083101698E-011));
#418=CARTESIAN_POINT('',(111.244684805098,0.,45.0919248548702));
#419=CARTESIAN_POINT('Origin',(111.24468480509,0.,-1.97366852159316E-011));
#420=CARTESIAN_POINT('Origin',(110.126298998149,0.,-1.95399252334028E-011));
#421=CARTESIAN_POINT('',(110.126298998157,0.,44.7499999999805));
#422=CARTESIAN_POINT('Origin',(110.126298998149,0.,-1.95382646921984E-011));
#423=CARTESIAN_POINT('Origin',(115.474985371161,0.,-2.04872119560414E-011));
#424=CARTESIAN_POINT('',(120.644842579185,0.,53.7242254353088));
#425=CARTESIAN_POINT('Origin',(120.644842579176,0.,-2.14044319068614E-011));
#426=CARTESIAN_POINT('',(110.305128163154,0.,46.7499999999804));
#427=CARTESIAN_POINT('Origin',(110.305128163146,0.,-1.95699920052215E-011));
#428=CARTESIAN_POINT('Origin',(124.,0.,-2.20001794559721E-011));
#429=CARTESIAN_POINT('',(130.000000000009,0.,48.7499999999769));
#430=CARTESIAN_POINT('Origin',(130.,0.,-2.30641947753868E-011));
#431=CARTESIAN_POINT('Origin',(130.000000000008,0.,47.3249999999771));
#432=CARTESIAN_POINT('',(130.000000000008,0.,45.8999999999773));
#433=CARTESIAN_POINT('Origin',(130.,0.,-2.30641947753868E-011));
#434=CARTESIAN_POINT('Origin',(129.8,0.,-2.30287113988092E-011));
#435=CARTESIAN_POINT('Origin',(-129.05,0.,-2.28956487366436E-011));
#436=CARTESIAN_POINT('',(-128.500000000008,0.,45.4999999999772));
#437=CARTESIAN_POINT('Origin',(-128.5,0.,-2.27980694510554E-011));
#438=CARTESIAN_POINT('',(-129.600000000008,0.,45.499999999977));
#439=CARTESIAN_POINT('Origin',(-129.6,0.,-2.29932280222317E-011));
#440=CARTESIAN_POINT('Origin',(-128.3,0.,-2.27625860744779E-011));
#441=CARTESIAN_POINT('',(-128.100000000008,0.,45.8999999999769));
#442=CARTESIAN_POINT('Origin',(-128.1,0.,-2.27271026979003E-011));
#443=CARTESIAN_POINT('Origin',(-128.100000000008,0.,47.3249999999771));
#444=CARTESIAN_POINT('',(-128.100000000009,0.,48.7499999999773));
#445=CARTESIAN_POINT('Origin',(-128.1,0.,-2.27271026979003E-011));
#446=CARTESIAN_POINT('Origin',(-124.,0.,-2.20001794559721E-011));
#447=CARTESIAN_POINT('',(-121.707309095779,0.,52.1490540474541));
#448=CARTESIAN_POINT('Origin',(-121.70730909577,0.,-2.1592931404408E-011));
#449=CARTESIAN_POINT('Origin',(-116.47599695043,0.,-2.06648083101698E-011));
#450=CARTESIAN_POINT('',(-111.244684805098,0.,45.0919248548702));
#451=CARTESIAN_POINT('Origin',(-111.24468480509,0.,-1.97366852159316E-011));
#452=CARTESIAN_POINT('Origin',(-110.126298998149,0.,-1.95399252334028E-011));
#453=CARTESIAN_POINT('',(-110.126298998157,0.,44.7499999999805));
#454=CARTESIAN_POINT('Origin',(-110.126298998149,0.,-1.95382646921984E-011));
#455=CARTESIAN_POINT('Origin',(-55.0631494990745,0.,-9.76913234609918E-012));
#456=CARTESIAN_POINT('Origin',(-55.152564081573,0.,-9.78499600261077E-012));
#457=CARTESIAN_POINT('',(-110.305128163154,0.,46.7499999999804));
#458=CARTESIAN_POINT('Origin',(-110.305128163146,0.,-1.95699920052215E-011));
#459=CARTESIAN_POINT('Origin',(-115.474985371161,0.,-2.04872119560414E-011));
#460=CARTESIAN_POINT('',(-120.644842579185,0.,53.7242254353088));
#461=CARTESIAN_POINT('Origin',(-120.644842579176,0.,-2.14044319068614E-011));
#462=CARTESIAN_POINT('Origin',(-124.,0.,-2.20001794559721E-011));
#463=CARTESIAN_POINT('',(-130.000000000009,0.,48.7499999999769));
#464=CARTESIAN_POINT('Origin',(-130.,0.,-2.30641947753868E-011));
#465=CARTESIAN_POINT('Origin',(-130.000000000008,0.,47.3249999999771));
#466=CARTESIAN_POINT('',(-130.000000000008,0.,45.8999999999773));
#467=CARTESIAN_POINT('Origin',(-130.,0.,-2.30641947753868E-011));
#468=CARTESIAN_POINT('Origin',(-129.8,0.,-2.30287113988092E-011));
#469=CARTESIAN_POINT('',(0.,0.,0.));
#470=CARTESIAN_POINT($,(0.,0.,0.));
#471=UNCERTAINTY_MEASURE_WITH_UNIT(LENGTH_MEASURE(0.01),#475,
'DISTANCE_ACCURACY_VALUE',
'Maximum model space distance between geometric entities at asserted c
onnectivities');
#472=UNCERTAINTY_MEASURE_WITH_UNIT(LENGTH_MEASURE(0.01),#475,
'DISTANCE_ACCURACY_VALUE',
'Maximum model space distance between geometric entities at asserted c
onnectivities');
#473=(
GEOMETRIC_REPRESENTATION_CONTEXT(3)
GLOBAL_UNCERTAINTY_ASSIGNED_CONTEXT((#471))
GLOBAL_UNIT_ASSIGNED_CONTEXT((#475,#478,#476))
REPRESENTATION_CONTEXT('','3D')
);
#474=(
GEOMETRIC_REPRESENTATION_CONTEXT(3)
GLOBAL_UNCERTAINTY_ASSIGNED_CONTEXT((#472))
GLOBAL_UNIT_ASSIGNED_CONTEXT((#475,#478,#476))
REPRESENTATION_CONTEXT('','3D')
);
#475=(
LENGTH_UNIT()
NAMED_UNIT(*)
SI_UNIT(.MILLI.,.METRE.)
);
#476=(
NAMED_UNIT(*)
SI_UNIT($,.STERADIAN.)
SOLID_ANGLE_UNIT()
);
#477=DIMENSIONAL_EXPONENTS(0.,0.,0.,0.,0.,0.,0.);
#478=(
CONVERSION_BASED_UNIT('degree',#480)
NAMED_UNIT(#477)
PLANE_ANGLE_UNIT()
);
#479=(
NAMED_UNIT(*)
PLANE_ANGLE_UNIT()
SI_UNIT($,.RADIAN.)
);
#480=PLANE_ANGLE_MEASURE_WITH_UNIT(PLANE_ANGLE_MEASURE(0.01745329252),#479);
#481=SHAPE_DEFINITION_REPRESENTATION(#483,#486);
#482=SHAPE_DEFINITION_REPRESENTATION(#484,#487);
#483=PRODUCT_DEFINITION_SHAPE('',$,#489);
#484=PRODUCT_DEFINITION_SHAPE('',$,#490);
#485=PRODUCT_DEFINITION_SHAPE($,$,#13);
#486=SHAPE_REPRESENTATION('',(#261),#473);
#487=SHAPE_REPRESENTATION('',(#306,#307),#474);
#488=PRODUCT_DEFINITION_CONTEXT('3D Mechanical Parts',#494,'design');
#489=PRODUCT_DEFINITION('432110','432110',#491,#488);
#490=PRODUCT_DEFINITION('34121','34121',#492,#488);
#491=PRODUCT_DEFINITION_FORMATION('',$,#496);
#492=PRODUCT_DEFINITION_FORMATION('',$,#497);
#493=APPLICATION_PROTOCOL_DEFINITION('international standard',
'automotive_design',2009,#494);
#494=APPLICATION_CONTEXT(
'Core Data for Automotive Mechanical Design Process');
#495=PRODUCT_CONTEXT('3D Mechanical Parts',#494,'mechanical');
#496=PRODUCT('432110','432110',$,(#495));
#497=PRODUCT('34121','34121',$,(#495));
#498=PRESENTATION_STYLE_ASSIGNMENT((#499));
#499=SURFACE_STYLE_USAGE(.BOTH.,#500);
#500=SURFACE_SIDE_STYLE($,(#501));
#501=SURFACE_STYLE_FILL_AREA(#502);
#502=FILL_AREA_STYLE($,(#503));
#503=FILL_AREA_STYLE_COLOUR($,#504);
#504=COLOUR_RGB('',1.,1.,1.);
ENDSEC;
END-ISO-10303-21;
