ISO-10303-21;
HEADER;
FILE_DESCRIPTION (( 'STEP AP214' ),
    '1' );
FILE_NAME ('CR 4''''x2.5''''.STEP',
    '2026-01-13T08:40:16',
    ( '' ),
    ( '' ),
    'SwSTEP 2.0',
    'SolidWorks 2018',
    '' );
FILE_SCHEMA (( 'AUTOMOTIVE_DESIGN' ));
ENDSEC;

DATA;
#1 = AXIS2_PLACEMENT_3D ( 'NONE', #145, #68, #87 ) ;
#2 =( LENGTH_UNIT ( ) NAMED_UNIT ( * ) SI_UNIT ( .MILLI., .METRE. ) );
#3 = ORIENTED_EDGE ( 'NONE', *, *, #96, .T. ) ;
#4 = PRODUCT_CONTEXT ( 'NONE', #102, 'mechanical' ) ;
#5 = ADVANCED_FACE ( 'NONE', ( #200 ), #189, .T. ) ;
#6 = FACE_BOUND ( 'NONE', #128, .T. ) ;
#7 = AXIS2_PLACEMENT_3D ( 'NONE', #108, #129, #175 ) ;
#8 = CARTESIAN_POINT ( 'NONE',  ( 0.0000000000000000000, 36.34971902449670722, 5.964029911847610077E-15 ) ) ;
#9 = DIRECTION ( 'NONE',  ( 0.0000000000000000000, -1.000000000000000000, 0.0000000000000000000 ) ) ;
#10 = CARTESIAN_POINT ( 'NONE',  ( 76.00000000000000000, 19.39971902449670438, 0.0000000000000000000 ) ) ;
#11 = DIRECTION ( 'NONE',  ( -0.9713334579997604523, -0.2377210831420466519, 0.0000000000000000000 ) ) ;
#12 = LINE ( 'NONE', #125, #80 ) ;
#13 = EDGE_CURVE ( 'NONE', #58, #115, #20, .T. ) ;
#14 =( NAMED_UNIT ( * ) SI_UNIT ( $, .STERADIAN. ) SOLID_ANGLE_UNIT ( ) );
#15 = FACE_OUTER_BOUND ( 'NONE', #104, .T. ) ;
#16 = EDGE_LOOP ( 'NONE', ( #32, #25, #179, #3 ) ) ;
#17 = DIRECTION ( 'NONE',  ( -1.000000000000000000, -2.282530889443167392E-17, -0.0000000000000000000 ) ) ;
#18 = CARTESIAN_POINT ( 'NONE',  ( 1.159525691837128973E-15, 38.44971902449670154, 6.221205739668553730E-15 ) ) ;
#19 = ORIENTED_EDGE ( 'NONE', *, *, #152, .T. ) ;
#20 = CIRCLE ( 'NONE', #55, 48.70000000000000284 ) ;
#21 = ORIENTED_EDGE ( 'NONE', *, *, #168, .T. ) ;
#22 = EDGE_CURVE ( 'NONE', #98, #211, #65, .T. ) ;
#23 = CIRCLE ( 'NONE', #34, 31.75000000000000000 ) ;
#24 = VECTOR ( 'NONE', #133, 1000.000000000000114 ) ;
#25 = ORIENTED_EDGE ( 'NONE', *, *, #117, .F. ) ;
#26 = DIRECTION ( 'NONE',  ( 2.282530889443167392E-17, -1.000000000000000000, 0.0000000000000000000 ) ) ;
#27 = EDGE_CURVE ( 'NONE', #169, #78, #136, .T. ) ;
#28 = ORIENTED_EDGE ( 'NONE', *, *, #140, .F. ) ;
#29 = MANIFOLD_SOLID_BREP ( 'Revolve1', #103 ) ;
#30 = CARTESIAN_POINT ( 'NONE',  ( 0.0000000000000000000, 36.34971902449670722, 5.964029911847610077E-15 ) ) ;
#31 =( LENGTH_UNIT ( ) NAMED_UNIT ( * ) SI_UNIT ( .MILLI., .METRE. ) );
#32 = ORIENTED_EDGE ( 'NONE', *, *, #187, .F. ) ;
#33 = CARTESIAN_POINT ( 'NONE',  ( -2.396657433915315438E-17, 38.44971902449670154, 0.0000000000000000000 ) ) ;
#34 = AXIS2_PLACEMENT_3D ( 'NONE', #176, #17, #70 ) ;
#35 = DIRECTION ( 'NONE',  ( 2.282530889443167084E-17, -1.000000000000000000, 0.0000000000000000000 ) ) ;
#36 = DIRECTION ( 'NONE',  ( -2.282530889443167392E-17, 1.000000000000000000, 0.0000000000000000000 ) ) ;
#37 = SURFACE_STYLE_USAGE ( .BOTH. , #202 ) ;
#38 = DIRECTION ( 'NONE',  ( 1.000000000000000000, 0.0000000000000000000, 0.0000000000000000000 ) ) ;
#39 = DIRECTION ( 'NONE',  ( -0.9713334579997604523, 0.2377210831420465964, 2.911243635597492579E-17 ) ) ;
#40 =( GEOMETRIC_REPRESENTATION_CONTEXT ( 3 ) GLOBAL_UNCERTAINTY_ASSIGNED_CONTEXT ( ( #62 ) ) GLOBAL_UNIT_ASSIGNED_CONTEXT ( ( #2, #116, #56 ) ) REPRESENTATION_CONTEXT ( 'NONE', 'WORKASPACE' ) );
#41 = ORIENTED_EDGE ( 'NONE', *, *, #205, .T. ) ;
#42 = EDGE_CURVE ( 'NONE', #92, #115, #12, .T. ) ;
#43 = AXIS2_PLACEMENT_3D ( 'NONE', #214, #114, #163 ) ;
#44 = ORIENTED_EDGE ( 'NONE', *, *, #187, .T. ) ;
#45 = STYLED_ITEM ( 'NONE', ( #119 ), #164 ) ;
#46 = LINE ( 'NONE', #194, #197 ) ;
#47 = CARTESIAN_POINT ( 'NONE',  ( 1.159525691837128973E-15, -12.35028097550329385, 0.0000000000000000000 ) ) ;
#48 = PRODUCT_DEFINITION_CONTEXT ( 'detailed design', #165, 'design' ) ;
#49 = EDGE_LOOP ( 'NONE', ( #77, #44, #204, #83 ) ) ;
#50 = CARTESIAN_POINT ( 'NONE',  ( 1.111592543158822430E-15, -12.35028097550329385, 0.0000000000000000000 ) ) ;
#51 = PRODUCT ( 'CR 4''''''''x2.5''''''''', 'CR 4''''''''x2.5''''''''', '', ( #4 ) ) ;
#52 = PRESENTATION_STYLE_ASSIGNMENT (( #99 ) ) ;
#53 = DIRECTION ( 'NONE',  ( 1.000000000000000000, 2.282530889443167392E-17, 0.0000000000000000000 ) ) ;
#54 = CONICAL_SURFACE ( 'NONE', #7, 48.70000000000000284, 0.2400190013757337870 ) ;
#55 = AXIS2_PLACEMENT_3D ( 'NONE', #81, #64, #94 ) ;
#56 =( NAMED_UNIT ( * ) SI_UNIT ( $, .STERADIAN. ) SOLID_ANGLE_UNIT ( ) );
#57 = CARTESIAN_POINT ( 'NONE',  ( 0.0000000000000000000, 0.0000000000000000000, 0.0000000000000000000 ) ) ;
#58 = VERTEX_POINT ( 'NONE', #8 ) ;
#59 = ADVANCED_FACE ( 'NONE', ( #113 ), #182, .F. ) ;
#60 = ADVANCED_FACE ( 'NONE', ( #192, #144 ), #88, .F. ) ;
#61 = FACE_OUTER_BOUND ( 'NONE', #49, .T. ) ;
#62 = UNCERTAINTY_MEASURE_WITH_UNIT (LENGTH_MEASURE( 1.000000000000000082E-05 ), #2, 'distance_accuracy_value', 'NONE');
#63 = FILL_AREA_STYLE_COLOUR ( '', #154 ) ;
#64 = DIRECTION ( 'NONE',  ( -1.000000000000000000, -2.282530889443167392E-17, -0.0000000000000000000 ) ) ;
#65 = CIRCLE ( 'NONE', #76, 50.79999999999999716 ) ;
#66 = DIRECTION ( 'NONE',  ( 2.282530889443167084E-17, -1.000000000000000000, 0.0000000000000000000 ) ) ;
#67 = ORIENTED_EDGE ( 'NONE', *, *, #96, .F. ) ;
#68 = DIRECTION ( 'NONE',  ( -1.000000000000000000, -2.282530889443167392E-17, -0.0000000000000000000 ) ) ;
#69 = CARTESIAN_POINT ( 'NONE',  ( 1.159525691837128973E-15, -63.15028097550329278, 0.0000000000000000000 ) ) ;
#70 = DIRECTION ( 'NONE',  ( 0.0000000000000000000, -1.000000000000000000, 0.0000000000000000000 ) ) ;
#71 = CIRCLE ( 'NONE', #43, 50.79999999999999716 ) ;
#72 = EDGE_LOOP ( 'NONE', ( #67, #156 ) ) ;
#73 = CARTESIAN_POINT ( 'NONE',  ( 76.00000000000000000, 19.39971902449670438, 5.054729663480700498E-15 ) ) ;
#74 = SURFACE_STYLE_FILL_AREA ( #177 ) ;
#75 = VERTEX_POINT ( 'NONE', #158 ) ;
#76 = AXIS2_PLACEMENT_3D ( 'NONE', #47, #170, #26 ) ;
#77 = ORIENTED_EDGE ( 'NONE', *, *, #148, .F. ) ;
#78 = VERTEX_POINT ( 'NONE', #143 ) ;
#79 = AXIS2_PLACEMENT_3D ( 'NONE', #10, #203, #199 ) ;
#80 = VECTOR ( 'NONE', #11, 999.9999999999998863 ) ;
#81 = CARTESIAN_POINT ( 'NONE',  ( 1.111592543158822430E-15, -12.35028097550329385, 0.0000000000000000000 ) ) ;
#82 = DIRECTION ( 'NONE',  ( -1.000000000000000000, -2.282530889443167392E-17, -0.0000000000000000000 ) ) ;
#83 = ORIENTED_EDGE ( 'NONE', *, *, #42, .F. ) ;
#84 = FILL_AREA_STYLE ('',( #63 ) ) ;
#85 = EDGE_LOOP ( 'NONE', ( #41, #21, #107, #28 ) ) ;
#86 = DIRECTION ( 'NONE',  ( 0.0000000000000000000, -1.000000000000000000, 0.0000000000000000000 ) ) ;
#87 = DIRECTION ( 'NONE',  ( 0.0000000000000000000, -1.000000000000000000, 0.0000000000000000000 ) ) ;
#88 = PLANE ( 'NONE',  #97 ) ;
#89 = AXIS2_PLACEMENT_3D ( 'NONE', #188, #82, #86 ) ;
#90 = FILL_AREA_STYLE_COLOUR ( '', #138 ) ;
#91 = PRODUCT_DEFINITION ( 'UNKNOWN', '', #109, #48 ) ;
#92 = VERTEX_POINT ( 'NONE', #111 ) ;
#93 = PRESENTATION_LAYER_ASSIGNMENT (  '', '', ( #45 ) ) ;
#94 = DIRECTION ( 'NONE',  ( 2.282530889443167084E-17, -1.000000000000000000, 0.0000000000000000000 ) ) ;
#95 = SURFACE_STYLE_FILL_AREA ( #84 ) ;
#96 = EDGE_CURVE ( 'NONE', #115, #58, #185, .T. ) ;
#97 = AXIS2_PLACEMENT_3D ( 'NONE', #33, #53, #36 ) ;
#98 = VERTEX_POINT ( 'NONE', #69 ) ;
#99 = SURFACE_STYLE_USAGE ( .BOTH. , #159 ) ;
#100 =( NAMED_UNIT ( * ) PLANE_ANGLE_UNIT ( ) SI_UNIT ( $, .RADIAN. ) );
#101 =( GEOMETRIC_REPRESENTATION_CONTEXT ( 3 ) GLOBAL_UNCERTAINTY_ASSIGNED_CONTEXT ( ( #206 ) ) GLOBAL_UNIT_ASSIGNED_CONTEXT ( ( #131, #118, #14 ) ) REPRESENTATION_CONTEXT ( 'NONE', 'WORKASPACE' ) );
#102 = APPLICATION_CONTEXT ( 'automotive_design' ) ;
#103 = CLOSED_SHELL ( 'NONE', ( #151, #135, #59, #60, #5, #167 ) ) ;
#104 = EDGE_LOOP ( 'NONE', ( #195, #121 ) ) ;
#105 = CIRCLE ( 'NONE', #106, 30.10000000000000142 ) ;
#106 = AXIS2_PLACEMENT_3D ( 'NONE', #213, #147, #160 ) ;
#107 = ORIENTED_EDGE ( 'NONE', *, *, #22, .F. ) ;
#108 = CARTESIAN_POINT ( 'NONE',  ( 1.111592543158822430E-15, -12.35028097550329385, 0.0000000000000000000 ) ) ;
#109 = PRODUCT_DEFINITION_FORMATION_WITH_SPECIFIED_SOURCE ( 'ANY', '', #51, .NOT_KNOWN. ) ;
#110 = LINE ( 'NONE', #180, #24 ) ;
#111 = CARTESIAN_POINT ( 'NONE',  ( 76.00000000000000000, -42.45028097550329704, 0.0000000000000000000 ) ) ;
#112 = PLANE ( 'NONE',  #79 ) ;
#113 = FACE_OUTER_BOUND ( 'NONE', #16, .T. ) ;
#114 = DIRECTION ( 'NONE',  ( -1.000000000000000000, -2.282530889443167392E-17, -0.0000000000000000000 ) ) ;
#115 = VERTEX_POINT ( 'NONE', #146 ) ;
#116 =( NAMED_UNIT ( * ) PLANE_ANGLE_UNIT ( ) SI_UNIT ( $, .RADIAN. ) );
#117 = EDGE_CURVE ( 'NONE', #92, #75, #183, .T. ) ;
#118 =( NAMED_UNIT ( * ) PLANE_ANGLE_UNIT ( ) SI_UNIT ( $, .RADIAN. ) );
#119 = PRESENTATION_STYLE_ASSIGNMENT (( #37 ) ) ;
#120 = APPLICATION_PROTOCOL_DEFINITION ( 'draft international standard', 'automotive_design', 1998, #102 ) ;
#121 = ORIENTED_EDGE ( 'NONE', *, *, #27, .F. ) ;
#122 = AXIS2_PLACEMENT_3D ( 'NONE', #210, #127, #66 ) ;
#123 = SHAPE_DEFINITION_REPRESENTATION ( #212, #164 ) ;
#124 = ORIENTED_EDGE ( 'NONE', *, *, #152, .F. ) ;
#125 = CARTESIAN_POINT ( 'NONE',  ( 2.223185086317644861E-15, -61.05028097550329136, 0.0000000000000000000 ) ) ;
#126 = AXIS2_PLACEMENT_3D ( 'NONE', #142, #171, #173 ) ;
#127 = DIRECTION ( 'NONE',  ( -1.000000000000000000, -2.282530889443167392E-17, -0.0000000000000000000 ) ) ;
#128 = EDGE_LOOP ( 'NONE', ( #209, #186 ) ) ;
#129 = DIRECTION ( 'NONE',  ( -1.000000000000000000, -2.282530889443167392E-17, -0.0000000000000000000 ) ) ;
#130 = DIRECTION ( 'NONE',  ( -1.000000000000000000, -2.282530889443167392E-17, -0.0000000000000000000 ) ) ;
#131 =( LENGTH_UNIT ( ) NAMED_UNIT ( * ) SI_UNIT ( .MILLI., .METRE. ) );
#132 = ORIENTED_EDGE ( 'NONE', *, *, #22, .T. ) ;
#133 = DIRECTION ( 'NONE',  ( -0.9699921606401790131, 0.2431361928973079789, 2.977559603885616291E-17 ) ) ;
#134 = AXIS2_PLACEMENT_3D ( 'NONE', #57, #149, #38 ) ;
#135 = ADVANCED_FACE ( 'NONE', ( #61 ), #54, .F. ) ;
#136 = CIRCLE ( 'NONE', #89, 31.75000000000000000 ) ;
#137 = EDGE_LOOP ( 'NONE', ( #132, #19 ) ) ;
#138 = COLOUR_RGB ( '',0.7921568627450980005, 0.8196078431372548767, 0.9333333333333333481 ) ;
#139 = CONICAL_SURFACE ( 'NONE', #153, 31.75000000000000000, 0.2455977622584157583 ) ;
#140 = EDGE_CURVE ( 'NONE', #78, #98, #46, .T. ) ;
#141 = UNCERTAINTY_MEASURE_WITH_UNIT (LENGTH_MEASURE( 1.000000000000000082E-05 ), #31, 'distance_accuracy_value', 'NONE');
#142 = CARTESIAN_POINT ( 'NONE',  ( 76.00000000000000000, -12.35028097550329207, 0.0000000000000000000 ) ) ;
#143 = CARTESIAN_POINT ( 'NONE',  ( 76.00000000000000000, -44.10028097550329562, 0.0000000000000000000 ) ) ;
#144 = FACE_OUTER_BOUND ( 'NONE', #137, .T. ) ;
#145 = CARTESIAN_POINT ( 'NONE',  ( 76.00000000000000000, -12.35028097550329207, 0.0000000000000000000 ) ) ;
#146 = CARTESIAN_POINT ( 'NONE',  ( 2.223185086317644861E-15, -61.05028097550329136, 0.0000000000000000000 ) ) ;
#147 = DIRECTION ( 'NONE',  ( -1.000000000000000000, -2.282530889443167392E-17, -0.0000000000000000000 ) ) ;
#148 = EDGE_CURVE ( 'NONE', #75, #92, #105, .T. ) ;
#149 = DIRECTION ( 'NONE',  ( 0.0000000000000000000, 0.0000000000000000000, 1.000000000000000000 ) ) ;
#150 = EDGE_LOOP ( 'NONE', ( #162, #174, #184, #124 ) ) ;
#151 = ADVANCED_FACE ( 'NONE', ( #201 ), #139, .T. ) ;
#152 = EDGE_CURVE ( 'NONE', #211, #98, #71, .T. ) ;
#153 = AXIS2_PLACEMENT_3D ( 'NONE', #191, #196, #9 ) ;
#154 = COLOUR_RGB ( '',0.7921568627450980005, 0.8196078431372548767, 0.9333333333333333481 ) ;
#155 = MECHANICAL_DESIGN_GEOMETRIC_PRESENTATION_REPRESENTATION (  '', ( #45 ), #101 ) ;
#156 = ORIENTED_EDGE ( 'NONE', *, *, #13, .F. ) ;
#157 = MECHANICAL_DESIGN_GEOMETRIC_PRESENTATION_REPRESENTATION (  '', ( #178 ), #161 ) ;
#158 = CARTESIAN_POINT ( 'NONE',  ( 76.00000000000000000, 17.74971902449670580, 4.825108388640572095E-15 ) ) ;
#159 = SURFACE_SIDE_STYLE ('',( #95 ) ) ;
#160 = DIRECTION ( 'NONE',  ( 0.0000000000000000000, -1.000000000000000000, 0.0000000000000000000 ) ) ;
#161 =( GEOMETRIC_REPRESENTATION_CONTEXT ( 3 ) GLOBAL_UNCERTAINTY_ASSIGNED_CONTEXT ( ( #141 ) ) GLOBAL_UNIT_ASSIGNED_CONTEXT ( ( #31, #100, #193 ) ) REPRESENTATION_CONTEXT ( 'NONE', 'WORKASPACE' ) );
#162 = ORIENTED_EDGE ( 'NONE', *, *, #168, .F. ) ;
#163 = DIRECTION ( 'NONE',  ( 2.282530889443167392E-17, -1.000000000000000000, 0.0000000000000000000 ) ) ;
#164 = ADVANCED_BREP_SHAPE_REPRESENTATION ( 'CR 4''''''''x2.5''''''''', ( #29, #134 ), #40 ) ;
#165 = APPLICATION_CONTEXT ( 'automotive_design' ) ;
#166 = LINE ( 'NONE', #30, #208 ) ;
#167 = ADVANCED_FACE ( 'NONE', ( #15, #6 ), #112, .F. ) ;
#168 = EDGE_CURVE ( 'NONE', #169, #211, #110, .T. ) ;
#169 = VERTEX_POINT ( 'NONE', #73 ) ;
#170 = DIRECTION ( 'NONE',  ( -1.000000000000000000, -2.282530889443167392E-17, -0.0000000000000000000 ) ) ;
#171 = DIRECTION ( 'NONE',  ( -1.000000000000000000, -2.282530889443167392E-17, -0.0000000000000000000 ) ) ;
#172 = PRODUCT_RELATED_PRODUCT_CATEGORY ( 'part', '', ( #51 ) ) ;
#173 = DIRECTION ( 'NONE',  ( 0.0000000000000000000, -1.000000000000000000, 0.0000000000000000000 ) ) ;
#174 = ORIENTED_EDGE ( 'NONE', *, *, #27, .T. ) ;
#175 = DIRECTION ( 'NONE',  ( 2.282530889443167084E-17, -1.000000000000000000, 0.0000000000000000000 ) ) ;
#176 = CARTESIAN_POINT ( 'NONE',  ( 76.00000000000000000, -12.35028097550329207, 0.0000000000000000000 ) ) ;
#177 = FILL_AREA_STYLE ('',( #90 ) ) ;
#178 = STYLED_ITEM ( 'NONE', ( #52 ), #29 ) ;
#179 = ORIENTED_EDGE ( 'NONE', *, *, #42, .T. ) ;
#180 = CARTESIAN_POINT ( 'NONE',  ( 76.00000000000000000, 19.39971902449670438, 3.888253587292846476E-15 ) ) ;
#181 = APPLICATION_PROTOCOL_DEFINITION ( 'draft international standard', 'automotive_design', 1998, #165 ) ;
#182 = CONICAL_SURFACE ( 'NONE', #207, 48.70000000000000284, 0.2400190013757337870 ) ;
#183 = CIRCLE ( 'NONE', #1, 30.10000000000000142 ) ;
#184 = ORIENTED_EDGE ( 'NONE', *, *, #140, .T. ) ;
#185 = CIRCLE ( 'NONE', #122, 48.70000000000000284 ) ;
#186 = ORIENTED_EDGE ( 'NONE', *, *, #148, .T. ) ;
#187 = EDGE_CURVE ( 'NONE', #75, #58, #166, .T. ) ;
#188 = CARTESIAN_POINT ( 'NONE',  ( 76.00000000000000000, -12.35028097550329207, 0.0000000000000000000 ) ) ;
#189 = CONICAL_SURFACE ( 'NONE', #126, 31.75000000000000000, 0.2455977622584157583 ) ;
#190 = PRESENTATION_LAYER_ASSIGNMENT (  '', '', ( #178 ) ) ;
#191 = CARTESIAN_POINT ( 'NONE',  ( 76.00000000000000000, -12.35028097550329207, 0.0000000000000000000 ) ) ;
#192 = FACE_BOUND ( 'NONE', #72, .T. ) ;
#193 =( NAMED_UNIT ( * ) SI_UNIT ( $, .STERADIAN. ) SOLID_ANGLE_UNIT ( ) );
#194 = CARTESIAN_POINT ( 'NONE',  ( 76.00000000000000000, -44.10028097550329562, 0.0000000000000000000 ) ) ;
#195 = ORIENTED_EDGE ( 'NONE', *, *, #205, .F. ) ;
#196 = DIRECTION ( 'NONE',  ( -1.000000000000000000, -2.282530889443167392E-17, -0.0000000000000000000 ) ) ;
#197 = VECTOR ( 'NONE', #198, 1000.000000000000114 ) ;
#198 = DIRECTION ( 'NONE',  ( -0.9699921606401790131, -0.2431361928973080344, 0.0000000000000000000 ) ) ;
#199 = DIRECTION ( 'NONE',  ( 2.282530889443167392E-17, -1.000000000000000000, 0.0000000000000000000 ) ) ;
#200 = FACE_OUTER_BOUND ( 'NONE', #150, .T. ) ;
#201 = FACE_OUTER_BOUND ( 'NONE', #85, .T. ) ;
#202 = SURFACE_SIDE_STYLE ('',( #74 ) ) ;
#203 = DIRECTION ( 'NONE',  ( -1.000000000000000000, -2.282530889443167392E-17, 0.0000000000000000000 ) ) ;
#204 = ORIENTED_EDGE ( 'NONE', *, *, #13, .T. ) ;
#205 = EDGE_CURVE ( 'NONE', #78, #169, #23, .T. ) ;
#206 = UNCERTAINTY_MEASURE_WITH_UNIT (LENGTH_MEASURE( 1.000000000000000082E-05 ), #131, 'distance_accuracy_value', 'NONE');
#207 = AXIS2_PLACEMENT_3D ( 'NONE', #50, #130, #35 ) ;
#208 = VECTOR ( 'NONE', #39, 999.9999999999998863 ) ;
#209 = ORIENTED_EDGE ( 'NONE', *, *, #117, .T. ) ;
#210 = CARTESIAN_POINT ( 'NONE',  ( 1.111592543158822430E-15, -12.35028097550329385, 0.0000000000000000000 ) ) ;
#211 = VERTEX_POINT ( 'NONE', #18 ) ;
#212 = PRODUCT_DEFINITION_SHAPE ( 'NONE', 'NONE',  #91 ) ;
#213 = CARTESIAN_POINT ( 'NONE',  ( 76.00000000000000000, -12.35028097550329207, 0.0000000000000000000 ) ) ;
#214 = CARTESIAN_POINT ( 'NONE',  ( 1.159525691837128973E-15, -12.35028097550329385, 0.0000000000000000000 ) ) ;
ENDSEC;
END-ISO-10303-21;
