ISO-10303-21;
HEADER;
/****************************************************************
 * Generated by software with PDE/Lib inside                    *
 * PDElib Version v51a, created Thu 12/14/2006                  *
 * International Technegroup Inc. (www.iti-oh.com)              *
 ****************************************************************/
FILE_DESCRIPTION((''),'2;1');
FILE_NAME('T:\\Arbeitspl\S\dtze\\Aushilfe\\KPeters\\3D\\Steps 08_10\\11320\\11320015x.stp','2010-08-03T08:46:01',('thilbrands'),(''),'Autodesk Inventor 2008','Autodesk Inventor 2008','');
FILE_SCHEMA(('AUTOMOTIVE_DESIGN { 1 0 10303 214 1 1 1 1 }'));
ENDSEC;
DATA;
#5=APPLICATION_CONTEXT('automotive design');
#6=APPLICATION_PROTOCOL_DEFINITION('International Standard','automotive_design',2001,#5);
#7=PRODUCT_CONTEXT('',#5,'mechanical');
#8=PRODUCT('113200101','113200101',$,(#7));
#9=PRODUCT_RELATED_PRODUCT_CATEGORY('part',$,(#8));
#10=PRODUCT_DEFINITION_FORMATION('',$,#8);
#11=PRODUCT_DEFINITION_CONTEXT('part definition',#5,'design');
#12=PRODUCT_DEFINITION('',$,#10,#11);
#18=(NAMED_UNIT(*)PLANE_ANGLE_UNIT()SI_UNIT($,.RADIAN.));
#19=DIMENSIONAL_EXPONENTS(0.0,0.0,0.0,0.0,0.0,0.0,0.0);
#20=PLANE_ANGLE_MEASURE_WITH_UNIT(PLANE_ANGLE_MEASURE(0.017453292500000),#18);
#24=(CONVERSION_BASED_UNIT('DEGREE',#20)NAMED_UNIT(#19)PLANE_ANGLE_UNIT());
#28=(NAMED_UNIT(*)SI_UNIT($,.STERADIAN.)SOLID_ANGLE_UNIT());
#32=(LENGTH_UNIT()NAMED_UNIT(*)SI_UNIT(.MILLI.,.METRE.));
#34=UNCERTAINTY_MEASURE_WITH_UNIT(LENGTH_MEASURE(0.010000000000000),#32,'DISTANCE_ACCURACY_VALUE','');
#36=(GEOMETRIC_REPRESENTATION_CONTEXT(3)GLOBAL_UNCERTAINTY_ASSIGNED_CONTEXT((#34))GLOBAL_UNIT_ASSIGNED_CONTEXT((#24,#28,#32))REPRESENTATION_CONTEXT('None','None'));
#37=AXIS2_PLACEMENT_3D('',#38,#39,#40);
#38=CARTESIAN_POINT('',(0.0,0.0,0.0));
#39=DIRECTION('',(0.0,0.0,1.0));
#40=DIRECTION('',(1.0,0.0,0.0));
#41=SHAPE_REPRESENTATION('',(#37),#36);
#42=PRODUCT_DEFINITION_SHAPE('','',#12);
#43=SHAPE_DEFINITION_REPRESENTATION(#42,#41);
#49=(NAMED_UNIT(*)PLANE_ANGLE_UNIT()SI_UNIT($,.RADIAN.));
#50=DIMENSIONAL_EXPONENTS(0.0,0.0,0.0,0.0,0.0,0.0,0.0);
#51=PLANE_ANGLE_MEASURE_WITH_UNIT(PLANE_ANGLE_MEASURE(0.017453292500000),#49);
#55=(CONVERSION_BASED_UNIT('DEGREE',#51)NAMED_UNIT(#50)PLANE_ANGLE_UNIT());
#59=(NAMED_UNIT(*)SI_UNIT($,.STERADIAN.)SOLID_ANGLE_UNIT());
#63=(LENGTH_UNIT()NAMED_UNIT(*)SI_UNIT(.MILLI.,.METRE.));
#65=UNCERTAINTY_MEASURE_WITH_UNIT(LENGTH_MEASURE(0.000001000000000),#63,'DISTANCE_ACCURACY_VALUE','');
#67=(GEOMETRIC_REPRESENTATION_CONTEXT(3)GLOBAL_UNCERTAINTY_ASSIGNED_CONTEXT((#65))GLOBAL_UNIT_ASSIGNED_CONTEXT((#55,#59,#63))REPRESENTATION_CONTEXT('','3D'));
#68=CARTESIAN_POINT('',(-20.250000000000004,0.0,0.0));
#69=DIRECTION('',(1.0,0.0,0.0));
#70=DIRECTION('',(0.0,-1.0,0.0));
#71=AXIS2_PLACEMENT_3D('',#68,#69,#70);
#72=CONICAL_SURFACE('',#71,16.250000000000000,44.999999999999993);
#73=CARTESIAN_POINT('',(-21.0,15.500000000000000,1.898140E-015));
#74=VERTEX_POINT('',#73);
#75=CARTESIAN_POINT('',(-21.0,0.0,0.0));
#76=DIRECTION('',(1.0,0.0,0.0));
#77=DIRECTION('',(0.0,-1.0,0.0));
#78=AXIS2_PLACEMENT_3D('',#75,#76,#77);
#79=CIRCLE('',#78,15.500000000000000);
#80=EDGE_CURVE('',#74,#74,#79,.T.);
#81=ORIENTED_EDGE('',*,*,#80,.T.);
#82=EDGE_LOOP('',(#81));
#83=FACE_OUTER_BOUND('',#82,.T.);
#84=CARTESIAN_POINT('',(-19.500000000000000,17.0,-2.081831E-015));
#85=VERTEX_POINT('',#84);
#86=CARTESIAN_POINT('',(-19.500000000000000,0.0,0.0));
#87=DIRECTION('',(-1.0,0.0,0.0));
#88=DIRECTION('',(0.0,-1.0,0.0));
#89=AXIS2_PLACEMENT_3D('',#86,#87,#88);
#90=CIRCLE('',#89,17.0);
#91=EDGE_CURVE('',#85,#85,#90,.T.);
#92=ORIENTED_EDGE('',*,*,#91,.T.);
#93=EDGE_LOOP('',(#92));
#94=FACE_BOUND('',#93,.T.);
#95=ADVANCED_FACE('',(#83,#94),#72,.T.);
#96=CARTESIAN_POINT('',(-21.0,15.485898384862242,0.0));
#97=DIRECTION('',(-1.0,0.0,0.0));
#98=DIRECTION('',(0.0,0.0,1.0));
#99=AXIS2_PLACEMENT_3D('',#96,#97,#98);
#100=PLANE('',#99);
#101=ORIENTED_EDGE('',*,*,#80,.F.);
#102=EDGE_LOOP('',(#101));
#103=FACE_OUTER_BOUND('',#102,.T.);
#104=CARTESIAN_POINT('',(-21.0,13.971796769724484,0.0));
#105=VERTEX_POINT('',#104);
#106=CARTESIAN_POINT('',(-21.0,0.0,0.0));
#107=DIRECTION('',(1.0,0.0,0.0));
#108=DIRECTION('',(0.0,1.0,0.0));
#109=AXIS2_PLACEMENT_3D('',#106,#107,#108);
#110=CIRCLE('',#109,13.971796769724484);
#111=EDGE_CURVE('',#105,#105,#110,.T.);
#112=ORIENTED_EDGE('',*,*,#111,.T.);
#113=EDGE_LOOP('',(#112));
#114=FACE_BOUND('',#113,.T.);
#115=ADVANCED_FACE('',(#103,#114),#100,.T.);
#116=CARTESIAN_POINT('',(-15.0,0.0,0.0));
#117=DIRECTION('',(1.0,0.0,0.0));
#118=DIRECTION('',(0.0,1.0,0.0));
#119=AXIS2_PLACEMENT_3D('',#116,#117,#118);
#120=CYLINDRICAL_SURFACE('',#119,17.0);
#121=CARTESIAN_POINT('',(-9.0,17.0,0.0));
#122=VERTEX_POINT('',#121);
#123=CARTESIAN_POINT('',(-9.0,0.0,0.0));
#124=DIRECTION('',(1.0,0.0,0.0));
#125=DIRECTION('',(0.0,1.0,0.0));
#126=AXIS2_PLACEMENT_3D('',#123,#124,#125);
#127=CIRCLE('',#126,17.0);
#128=EDGE_CURVE('',#122,#122,#127,.T.);
#129=ORIENTED_EDGE('',*,*,#128,.F.);
#130=EDGE_LOOP('',(#129));
#131=FACE_OUTER_BOUND('',#130,.T.);
#132=ORIENTED_EDGE('',*,*,#91,.F.);
#133=EDGE_LOOP('',(#132));
#134=FACE_BOUND('',#133,.T.);
#135=ADVANCED_FACE('',(#131,#134),#120,.T.);
#136=CARTESIAN_POINT('',(-8.500000000000000,0.0,0.0));
#137=DIRECTION('',(1.0,0.0,0.0));
#138=DIRECTION('',(0.0,1.0,0.0));
#139=AXIS2_PLACEMENT_3D('',#136,#137,#138);
#140=CYLINDRICAL_SURFACE('',#139,7.999999999999998);
#141=CARTESIAN_POINT('',(-17.0,7.999999999999994,0.0));
#142=VERTEX_POINT('',#141);
#143=CARTESIAN_POINT('',(-17.0,0.0,0.0));
#144=DIRECTION('',(1.0,0.0,0.0));
#145=DIRECTION('',(0.0,1.0,0.0));
#146=AXIS2_PLACEMENT_3D('',#143,#144,#145);
#147=CIRCLE('',#146,7.999999999999994);
#148=EDGE_CURVE('',#142,#142,#147,.T.);
#149=ORIENTED_EDGE('',*,*,#148,.F.);
#150=EDGE_LOOP('',(#149));
#151=FACE_OUTER_BOUND('',#150,.T.);
#152=CARTESIAN_POINT('',(0.0,8.000000000000004,0.0));
#153=VERTEX_POINT('',#152);
#154=CARTESIAN_POINT('',(0.0,0.0,0.0));
#155=DIRECTION('',(1.0,0.0,0.0));
#156=DIRECTION('',(0.0,1.0,0.0));
#157=AXIS2_PLACEMENT_3D('',#154,#155,#156);
#158=CIRCLE('',#157,8.000000000000004);
#159=EDGE_CURVE('',#153,#153,#158,.T.);
#160=ORIENTED_EDGE('',*,*,#159,.T.);
#161=EDGE_LOOP('',(#160));
#162=FACE_BOUND('',#161,.T.);
#163=ADVANCED_FACE('',(#151,#162),#140,.F.);
#164=CARTESIAN_POINT('',(-17.0,8.499999999999995,0.0));
#165=DIRECTION('',(-1.0,0.0,0.0));
#166=DIRECTION('',(0.0,0.0,1.0));
#167=AXIS2_PLACEMENT_3D('',#164,#165,#166);
#168=PLANE('',#167);
#169=CARTESIAN_POINT('',(-17.0,8.999999999999996,0.0));
#170=VERTEX_POINT('',#169);
#171=CARTESIAN_POINT('',(-17.0,0.0,0.0));
#172=DIRECTION('',(1.0,0.0,0.0));
#173=DIRECTION('',(0.0,1.0,0.0));
#174=AXIS2_PLACEMENT_3D('',#171,#172,#173);
#175=CIRCLE('',#174,8.999999999999996);
#176=EDGE_CURVE('',#170,#170,#175,.T.);
#177=ORIENTED_EDGE('',*,*,#176,.F.);
#178=EDGE_LOOP('',(#177));
#179=FACE_OUTER_BOUND('',#178,.T.);
#180=ORIENTED_EDGE('',*,*,#148,.T.);
#181=EDGE_LOOP('',(#180));
#182=FACE_BOUND('',#181,.T.);
#183=ADVANCED_FACE('',(#179,#182),#168,.T.);
#184=CARTESIAN_POINT('',(-15.500000000000000,0.0,0.0));
#185=DIRECTION('',(1.0,0.0,0.0));
#186=DIRECTION('',(0.0,1.0,0.0));
#187=AXIS2_PLACEMENT_3D('',#184,#185,#186);
#188=CYLINDRICAL_SURFACE('',#187,8.999999999999996);
#189=CARTESIAN_POINT('',(-14.0,8.999999999999996,0.0));
#190=VERTEX_POINT('',#189);
#191=CARTESIAN_POINT('',(-14.0,0.0,0.0));
#192=DIRECTION('',(1.0,0.0,0.0));
#193=DIRECTION('',(0.0,1.0,0.0));
#194=AXIS2_PLACEMENT_3D('',#191,#192,#193);
#195=CIRCLE('',#194,8.999999999999996);
#196=EDGE_CURVE('',#190,#190,#195,.T.);
#197=ORIENTED_EDGE('',*,*,#196,.F.);
#198=EDGE_LOOP('',(#197));
#199=FACE_OUTER_BOUND('',#198,.T.);
#200=ORIENTED_EDGE('',*,*,#176,.T.);
#201=EDGE_LOOP('',(#200));
#202=FACE_BOUND('',#201,.T.);
#203=ADVANCED_FACE('',(#199,#202),#188,.T.);
#204=CARTESIAN_POINT('',(-14.0,10.949999999999998,0.0));
#205=DIRECTION('',(-1.0,0.0,0.0));
#206=DIRECTION('',(0.0,0.0,1.0));
#207=AXIS2_PLACEMENT_3D('',#204,#205,#206);
#208=PLANE('',#207);
#209=CARTESIAN_POINT('',(-14.000000000000002,12.899999999999999,0.0));
#210=VERTEX_POINT('',#209);
#211=CARTESIAN_POINT('',(-14.000000000000002,0.0,0.0));
#212=DIRECTION('',(1.0,0.0,0.0));
#213=DIRECTION('',(0.0,1.0,0.0));
#214=AXIS2_PLACEMENT_3D('',#211,#212,#213);
#215=CIRCLE('',#214,12.899999999999999);
#216=EDGE_CURVE('',#210,#210,#215,.T.);
#217=ORIENTED_EDGE('',*,*,#216,.F.);
#218=EDGE_LOOP('',(#217));
#219=FACE_OUTER_BOUND('',#218,.T.);
#220=ORIENTED_EDGE('',*,*,#196,.T.);
#221=EDGE_LOOP('',(#220));
#222=FACE_BOUND('',#221,.T.);
#223=ADVANCED_FACE('',(#219,#222),#208,.T.);
#224=CARTESIAN_POINT('',(-15.500000000000004,0.0,0.0));
#225=DIRECTION('',(1.0,0.0,0.0));
#226=DIRECTION('',(0.0,1.0,0.0));
#227=AXIS2_PLACEMENT_3D('',#224,#225,#226);
#228=CYLINDRICAL_SURFACE('',#227,12.899999999999995);
#229=CARTESIAN_POINT('',(-17.0,12.899999999999995,0.0));
#230=VERTEX_POINT('',#229);
#231=CARTESIAN_POINT('',(-17.0,0.0,0.0));
#232=DIRECTION('',(1.0,0.0,0.0));
#233=DIRECTION('',(0.0,1.0,0.0));
#234=AXIS2_PLACEMENT_3D('',#231,#232,#233);
#235=CIRCLE('',#234,12.899999999999995);
#236=EDGE_CURVE('',#230,#230,#235,.T.);
#237=ORIENTED_EDGE('',*,*,#236,.F.);
#238=EDGE_LOOP('',(#237));
#239=FACE_OUTER_BOUND('',#238,.T.);
#240=ORIENTED_EDGE('',*,*,#216,.T.);
#241=EDGE_LOOP('',(#240));
#242=FACE_BOUND('',#241,.T.);
#243=ADVANCED_FACE('',(#239,#242),#228,.F.);
#244=CARTESIAN_POINT('',(-19.0,0.0,0.0));
#245=DIRECTION('',(-1.0,0.0,0.0));
#246=DIRECTION('',(0.0,1.0,0.0));
#247=AXIS2_PLACEMENT_3D('',#244,#245,#246);
#248=CONICAL_SURFACE('',#247,13.435898384862242,14.999999999999979);
#249=ORIENTED_EDGE('',*,*,#111,.F.);
#250=EDGE_LOOP('',(#249));
#251=FACE_OUTER_BOUND('',#250,.T.);
#252=ORIENTED_EDGE('',*,*,#236,.T.);
#253=EDGE_LOOP('',(#252));
#254=FACE_BOUND('',#253,.T.);
#255=ADVANCED_FACE('',(#251,#254),#248,.F.);
#256=CARTESIAN_POINT('',(-8.455340319811198,0.0,0.0));
#257=DIRECTION('',(-1.0,0.0,0.0));
#258=DIRECTION('',(0.0,1.0,0.0));
#259=AXIS2_PLACEMENT_3D('',#256,#257,#258);
#260=CONICAL_SURFACE('',#259,13.911081457866455,80.000000000000028);
#261=CARTESIAN_POINT('',(-7.910680639622396,10.822162915732905,0.0));
#262=VERTEX_POINT('',#261);
#263=CARTESIAN_POINT('',(-7.910680639622396,0.0,0.0));
#264=DIRECTION('',(1.0,0.0,0.0));
#265=DIRECTION('',(0.0,1.0,0.0));
#266=AXIS2_PLACEMENT_3D('',#263,#264,#265);
#267=CIRCLE('',#266,10.822162915732905);
#268=EDGE_CURVE('',#262,#262,#267,.T.);
#269=ORIENTED_EDGE('',*,*,#268,.F.);
#270=EDGE_LOOP('',(#269));
#271=FACE_OUTER_BOUND('',#270,.T.);
#272=ORIENTED_EDGE('',*,*,#128,.T.);
#273=EDGE_LOOP('',(#272));
#274=FACE_BOUND('',#273,.T.);
#275=ADVANCED_FACE('',(#271,#274),#260,.T.);
#276=CARTESIAN_POINT('',(-6.334988234802862,-1.163376E-015,9.499999999999995));
#277=CARTESIAN_POINT('',(-7.934988234802863,-1.163376E-015,9.499999999999995));
#278=CARTESIAN_POINT('',(-7.934988234802862,-1.359313E-015,11.099999999999994));
#279=CARTESIAN_POINT('',(-7.934988234802862,-1.555250E-015,12.699999999999996));
#280=CARTESIAN_POINT('',(-6.334988234802862,-1.555250E-015,12.699999999999994));
#281=CARTESIAN_POINT('',(-6.334988234802863,-9.499999999999995,9.499999999999991));
#282=CARTESIAN_POINT('',(-7.934988234802862,-9.499999999999995,9.499999999999991));
#283=CARTESIAN_POINT('',(-7.934988234802863,-11.099999999999994,11.099999999999991));
#284=CARTESIAN_POINT('',(-7.934988234802862,-12.699999999999994,12.699999999999990));
#285=CARTESIAN_POINT('',(-6.334988234802863,-12.699999999999992,12.699999999999989));
#286=CARTESIAN_POINT('',(-6.334988234802862,-9.499999999999995,-1.163376E-015));
#287=CARTESIAN_POINT('',(-7.934988234802863,-9.499999999999995,-1.163376E-015));
#288=CARTESIAN_POINT('',(-7.934988234802862,-11.099999999999994,-1.359313E-015));
#289=CARTESIAN_POINT('',(-7.934988234802862,-12.699999999999996,-1.555250E-015));
#290=CARTESIAN_POINT('',(-6.334988234802862,-12.699999999999994,-1.555250E-015));
#291=CARTESIAN_POINT('',(-6.334988234802863,-9.499999999999991,-9.499999999999995));
#292=CARTESIAN_POINT('',(-7.934988234802862,-9.499999999999991,-9.499999999999995));
#293=CARTESIAN_POINT('',(-7.934988234802863,-11.099999999999991,-11.099999999999994));
#294=CARTESIAN_POINT('',(-7.934988234802862,-12.699999999999990,-12.699999999999994));
#295=CARTESIAN_POINT('',(-6.334988234802863,-12.699999999999989,-12.699999999999992));
#296=CARTESIAN_POINT('',(-6.334988234802862,1.163376E-015,-9.499999999999995));
#297=CARTESIAN_POINT('',(-7.934988234802863,1.163376E-015,-9.499999999999995));
#298=CARTESIAN_POINT('',(-7.934988234802862,1.359313E-015,-11.099999999999994));
#299=CARTESIAN_POINT('',(-7.934988234802862,1.555250E-015,-12.699999999999996));
#300=CARTESIAN_POINT('',(-6.334988234802862,1.555250E-015,-12.699999999999994));
#301=CARTESIAN_POINT('',(-6.334988234802863,9.499999999999995,-9.499999999999991));
#302=CARTESIAN_POINT('',(-7.934988234802862,9.499999999999995,-9.499999999999991));
#303=CARTESIAN_POINT('',(-7.934988234802863,11.099999999999994,-11.099999999999991));
#304=CARTESIAN_POINT('',(-7.934988234802862,12.699999999999994,-12.699999999999990));
#305=CARTESIAN_POINT('',(-6.334988234802863,12.699999999999992,-12.699999999999989));
#306=CARTESIAN_POINT('',(-6.334988234802862,9.499999999999995,1.163376E-015));
#307=CARTESIAN_POINT('',(-7.934988234802863,9.499999999999995,1.163376E-015));
#308=CARTESIAN_POINT('',(-7.934988234802862,11.099999999999994,1.359313E-015));
#309=CARTESIAN_POINT('',(-7.934988234802862,12.699999999999996,1.555250E-015));
#310=CARTESIAN_POINT('',(-6.334988234802862,12.699999999999994,1.555250E-015));
#311=CARTESIAN_POINT('',(-6.334988234802863,9.499999999999991,9.499999999999995));
#312=CARTESIAN_POINT('',(-7.934988234802862,9.499999999999991,9.499999999999995));
#313=CARTESIAN_POINT('',(-7.934988234802863,11.099999999999991,11.099999999999994));
#314=CARTESIAN_POINT('',(-7.934988234802862,12.699999999999990,12.699999999999994));
#315=CARTESIAN_POINT('',(-6.334988234802863,12.699999999999989,12.699999999999992));
#316=CARTESIAN_POINT('',(-6.334988234802862,-1.163376E-015,9.499999999999995));
#317=CARTESIAN_POINT('',(-7.934988234802863,-1.163376E-015,9.499999999999995));
#318=CARTESIAN_POINT('',(-7.934988234802862,-1.359313E-015,11.099999999999994));
#319=CARTESIAN_POINT('',(-7.934988234802862,-1.555250E-015,12.699999999999996));
#320=CARTESIAN_POINT('',(-6.334988234802862,-1.555250E-015,12.699999999999994));
#328=(BOUNDED_SURFACE()B_SPLINE_SURFACE(2,2,((#276,#281,#286,#291,#296,#301,#306,#311,#316),(#277,#282,#287,#292,#297,#302,#307,#312,#317),(#278,#283,#288,#293,#298,#303,#308,#313,#318),(#279,#284,#289,#294,#299,#304,#309,#314,#319),(#280,#285,#290,#295,#300,#305,#310,#315,#320)),.UNSPECIFIED.,.F.,.T.,.U.)B_SPLINE_SURFACE_WITH_KNOTS((3,2,3),(3,2,2,2,3),(-3.141592653589794,-1.570796326794897,5.551115E-016),(0.0,1.570796326794897,3.141592653589793,4.712388980384690,6.283185307179586),.UNSPECIFIED.)GEOMETRIC_REPRESENTATION_ITEM()RATIONAL_B_SPLINE_SURFACE(((1.0,0.707106781186548,1.0,0.707106781186548,1.0,0.707106781186548,1.0,0.707106781186548,1.0),(0.707106781186547,0.500000000000000,0.707106781186547,0.500000000000000,0.707106781186547,0.500000000000000,0.707106781186547,0.500000000000000,0.707106781186547),(1.0,0.707106781186548,1.0,0.707106781186548,1.0,0.707106781186548,1.0,0.707106781186548,1.0),(0.707106781186546,0.499999999999999,0.707106781186546,0.499999999999999,0.707106781186546,0.499999999999999,0.707106781186546,0.499999999999999,0.707106781186546),(1.0,0.707106781186548,1.0,0.707106781186548,1.0,0.707106781186548,1.0,0.707106781186548,1.0)))REPRESENTATION_ITEM('')SURFACE());
#329=CARTESIAN_POINT('',(-6.334988234802862,9.499999999999998,0.0));
#330=VERTEX_POINT('',#329);
#331=CARTESIAN_POINT('',(-6.334988234802862,0.0,0.0));
#332=DIRECTION('',(1.0,0.0,0.0));
#333=DIRECTION('',(0.0,1.0,0.0));
#334=AXIS2_PLACEMENT_3D('',#331,#332,#333);
#335=CIRCLE('',#334,9.499999999999998);
#336=EDGE_CURVE('',#330,#330,#335,.T.);
#337=ORIENTED_EDGE('',*,*,#336,.F.);
#338=EDGE_LOOP('',(#337));
#339=FACE_OUTER_BOUND('',#338,.T.);
#340=ORIENTED_EDGE('',*,*,#268,.T.);
#341=EDGE_LOOP('',(#340));
#342=FACE_BOUND('',#341,.T.);
#343=ADVANCED_FACE('',(#339,#342),#328,.T.);
#344=CARTESIAN_POINT('',(-3.167494117401431,0.0,0.0));
#345=DIRECTION('',(1.0,0.0,0.0));
#346=DIRECTION('',(0.0,1.0,0.0));
#347=AXIS2_PLACEMENT_3D('',#344,#345,#346);
#348=CYLINDRICAL_SURFACE('',#347,9.500000000000000);
#349=CARTESIAN_POINT('',(-3.965207E-016,9.500000000000002,0.0));
#350=VERTEX_POINT('',#349);
#351=CARTESIAN_POINT('',(-3.965207E-016,0.0,0.0));
#352=DIRECTION('',(1.0,0.0,0.0));
#353=DIRECTION('',(0.0,1.0,0.0));
#354=AXIS2_PLACEMENT_3D('',#351,#352,#353);
#355=CIRCLE('',#354,9.500000000000002);
#356=EDGE_CURVE('',#350,#350,#355,.T.);
#357=ORIENTED_EDGE('',*,*,#356,.F.);
#358=EDGE_LOOP('',(#357));
#359=FACE_OUTER_BOUND('',#358,.T.);
#360=ORIENTED_EDGE('',*,*,#336,.T.);
#361=EDGE_LOOP('',(#360));
#362=FACE_BOUND('',#361,.T.);
#363=ADVANCED_FACE('',(#359,#362),#348,.T.);
#364=CARTESIAN_POINT('',(-1.982603E-016,8.750000000000002,0.0));
#365=DIRECTION('',(1.0,0.0,0.0));
#366=DIRECTION('',(0.0,0.0,-1.0));
#367=AXIS2_PLACEMENT_3D('',#364,#365,#366);
#368=PLANE('',#367);
#369=ORIENTED_EDGE('',*,*,#356,.T.);
#370=EDGE_LOOP('',(#369));
#371=FACE_OUTER_BOUND('',#370,.T.);
#372=ORIENTED_EDGE('',*,*,#159,.F.);
#373=EDGE_LOOP('',(#372));
#374=FACE_BOUND('',#373,.T.);
#375=ADVANCED_FACE('',(#371,#374),#368,.T.);
#376=CLOSED_SHELL('',(#95,#115,#135,#163,#183,#203,#223,#243,#255,#275,#343,#363,#375));
#377=MANIFOLD_SOLID_BREP('',#376);
#378=COLOUR_RGB('Metall - Stahl',0.639216005802155,0.639216005802155,0.686275005340576);
#379=FILL_AREA_STYLE_COLOUR('Metall - Stahl',#378);
#380=FILL_AREA_STYLE('Metall - Stahl',(#379));
#381=SURFACE_STYLE_FILL_AREA(#380);
#382=SURFACE_SIDE_STYLE('Metall - Stahl',(#381));
#383=SURFACE_STYLE_USAGE(.BOTH.,#382);
#384=PRESENTATION_STYLE_ASSIGNMENT((#383));
#385=STYLED_ITEM('',(#384),#377);
#386=MECHANICAL_DESIGN_GEOMETRIC_PRESENTATION_REPRESENTATION('',(#385),#36);
#387=ADVANCED_BREP_SHAPE_REPRESENTATION('ABSR',(#377),#36);
#388=SHAPE_REPRESENTATION_RELATIONSHIP('SRR','None',#387,#41);
ENDSEC;
END-ISO-10303-21;
