ISO-10303-21;
HEADER;
/* Generated by software containing ST-Developer
 * from STEP Tools, Inc. (www.steptools.com) 
 */

FILE_DESCRIPTION(
/* description */ (''),
/* implementation_level */ '2;1');

FILE_NAME(
/* name */ 'Z:\\Geberit\\Export\\NewStep\\MAP Passbogen G\\stp\\30908.
stp',
/* time_stamp */ '2014-04-01T19:37:41+02:00',
/* author */ ('bruh'),
/* organization */ (''),
/* preprocessor_version */ 'ST-DEVELOPER v15.2',
/* originating_system */ 'Autodesk Inventor 2014',
/* authorisation */ '');

FILE_SCHEMA (('AUTOMOTIVE_DESIGN { 1 0 10303 214 3 1 1 }'));
ENDSEC;

DATA;
#10=ITEM_DEFINED_TRANSFORMATION($,$,#173,#203);
#11=(
REPRESENTATION_RELATIONSHIP($,$,#326,#327)
REPRESENTATION_RELATIONSHIP_WITH_TRANSFORMATION(#10)
SHAPE_REPRESENTATION_RELATIONSHIP()
);
#12=CONTEXT_DEPENDENT_SHAPE_REPRESENTATION(#11,#325);
#13=NEXT_ASSEMBLY_USAGE_OCCURRENCE('30908:1',$,$,#330,#329,$);
#14=SHAPE_REPRESENTATION_RELATIONSHIP('SRR','None',#326,#15);
#15=ADVANCED_BREP_SHAPE_REPRESENTATION($,(#172),#313);
#16=STYLED_ITEM($,(#338),#172);
#17=PLANE($,#200);
#18=PLANE($,#201);
#19=TOROIDAL_SURFACE($,#191,90.,25.);
#20=TOROIDAL_SURFACE($,#197,90.,27.);
#21=CYLINDRICAL_SURFACE($,#179,27.);
#22=CYLINDRICAL_SURFACE($,#186,27.);
#23=CYLINDRICAL_SURFACE($,#188,25.);
#24=CYLINDRICAL_SURFACE($,#193,25.);
#25=CYLINDRICAL_SURFACE($,#195,27.);
#26=CYLINDRICAL_SURFACE($,#199,27.);
#27=FACE_BOUND($,#56,.T.);
#28=FACE_BOUND($,#58,.T.);
#29=FACE_BOUND($,#60,.T.);
#30=FACE_BOUND($,#62,.T.);
#31=FACE_BOUND($,#64,.T.);
#32=FACE_BOUND($,#66,.T.);
#33=FACE_BOUND($,#68,.T.);
#34=FACE_BOUND($,#70,.T.);
#35=FACE_BOUND($,#72,.T.);
#36=FACE_BOUND($,#74,.T.);
#37=FACE_BOUND($,#76,.T.);
#38=FACE_BOUND($,#78,.T.);
#39=FACE_BOUND($,#79,.T.);
#40=FACE_BOUND($,#80,.T.);
#41=FACE_BOUND($,#81,.T.);
#42=FACE_BOUND($,#82,.T.);
#43=FACE_OUTER_BOUND($,#55,.T.);
#44=FACE_OUTER_BOUND($,#57,.T.);
#45=FACE_OUTER_BOUND($,#59,.T.);
#46=FACE_OUTER_BOUND($,#61,.T.);
#47=FACE_OUTER_BOUND($,#63,.T.);
#48=FACE_OUTER_BOUND($,#65,.T.);
#49=FACE_OUTER_BOUND($,#67,.T.);
#50=FACE_OUTER_BOUND($,#69,.T.);
#51=FACE_OUTER_BOUND($,#71,.T.);
#52=FACE_OUTER_BOUND($,#73,.T.);
#53=FACE_OUTER_BOUND($,#75,.T.);
#54=FACE_OUTER_BOUND($,#77,.T.);
#55=EDGE_LOOP($,(#125));
#56=EDGE_LOOP($,(#126));
#57=EDGE_LOOP($,(#127));
#58=EDGE_LOOP($,(#128));
#59=EDGE_LOOP($,(#129));
#60=EDGE_LOOP($,(#130));
#61=EDGE_LOOP($,(#131));
#62=EDGE_LOOP($,(#132));
#63=EDGE_LOOP($,(#133));
#64=EDGE_LOOP($,(#134));
#65=EDGE_LOOP($,(#135));
#66=EDGE_LOOP($,(#136));
#67=EDGE_LOOP($,(#137));
#68=EDGE_LOOP($,(#138));
#69=EDGE_LOOP($,(#139));
#70=EDGE_LOOP($,(#140));
#71=EDGE_LOOP($,(#141));
#72=EDGE_LOOP($,(#142));
#73=EDGE_LOOP($,(#143));
#74=EDGE_LOOP($,(#144));
#75=EDGE_LOOP($,(#145));
#76=EDGE_LOOP($,(#146));
#77=EDGE_LOOP($,(#147));
#78=EDGE_LOOP($,(#148));
#79=EDGE_LOOP($,(#149));
#80=EDGE_LOOP($,(#150));
#81=EDGE_LOOP($,(#151));
#82=EDGE_LOOP($,(#152));
#83=CIRCLE($,#175,27.);
#84=CIRCLE($,#176,26.5064710065383);
#85=CIRCLE($,#178,27.);
#86=CIRCLE($,#180,27.);
#87=CIRCLE($,#182,27.);
#88=CIRCLE($,#183,26.5);
#89=CIRCLE($,#185,27.);
#90=CIRCLE($,#187,27.);
#91=CIRCLE($,#189,25.);
#92=CIRCLE($,#190,25.);
#93=CIRCLE($,#192,25.);
#94=CIRCLE($,#194,25.);
#95=CIRCLE($,#196,27.);
#96=CIRCLE($,#198,27.);
#97=VERTEX_POINT($,#268);
#98=VERTEX_POINT($,#270);
#99=VERTEX_POINT($,#273);
#100=VERTEX_POINT($,#276);
#101=VERTEX_POINT($,#279);
#102=VERTEX_POINT($,#281);
#103=VERTEX_POINT($,#284);
#104=VERTEX_POINT($,#287);
#105=VERTEX_POINT($,#290);
#106=VERTEX_POINT($,#292);
#107=VERTEX_POINT($,#295);
#108=VERTEX_POINT($,#298);
#109=VERTEX_POINT($,#301);
#110=VERTEX_POINT($,#304);
#111=EDGE_CURVE($,#97,#97,#83,.T.);
#112=EDGE_CURVE($,#98,#98,#84,.T.);
#113=EDGE_CURVE($,#99,#99,#85,.T.);
#114=EDGE_CURVE($,#100,#100,#86,.T.);
#115=EDGE_CURVE($,#101,#101,#87,.T.);
#116=EDGE_CURVE($,#102,#102,#88,.T.);
#117=EDGE_CURVE($,#103,#103,#89,.T.);
#118=EDGE_CURVE($,#104,#104,#90,.T.);
#119=EDGE_CURVE($,#105,#105,#91,.T.);
#120=EDGE_CURVE($,#106,#106,#92,.T.);
#121=EDGE_CURVE($,#107,#107,#93,.T.);
#122=EDGE_CURVE($,#108,#108,#94,.T.);
#123=EDGE_CURVE($,#109,#109,#95,.T.);
#124=EDGE_CURVE($,#110,#110,#96,.T.);
#125=ORIENTED_EDGE($,*,*,#111,.F.);
#126=ORIENTED_EDGE($,*,*,#112,.F.);
#127=ORIENTED_EDGE($,*,*,#112,.T.);
#128=ORIENTED_EDGE($,*,*,#113,.F.);
#129=ORIENTED_EDGE($,*,*,#114,.F.);
#130=ORIENTED_EDGE($,*,*,#113,.T.);
#131=ORIENTED_EDGE($,*,*,#115,.F.);
#132=ORIENTED_EDGE($,*,*,#116,.F.);
#133=ORIENTED_EDGE($,*,*,#116,.T.);
#134=ORIENTED_EDGE($,*,*,#117,.F.);
#135=ORIENTED_EDGE($,*,*,#118,.F.);
#136=ORIENTED_EDGE($,*,*,#117,.T.);
#137=ORIENTED_EDGE($,*,*,#119,.F.);
#138=ORIENTED_EDGE($,*,*,#120,.T.);
#139=ORIENTED_EDGE($,*,*,#120,.F.);
#140=ORIENTED_EDGE($,*,*,#121,.T.);
#141=ORIENTED_EDGE($,*,*,#121,.F.);
#142=ORIENTED_EDGE($,*,*,#122,.F.);
#143=ORIENTED_EDGE($,*,*,#111,.T.);
#144=ORIENTED_EDGE($,*,*,#123,.T.);
#145=ORIENTED_EDGE($,*,*,#114,.T.);
#146=ORIENTED_EDGE($,*,*,#124,.F.);
#147=ORIENTED_EDGE($,*,*,#115,.T.);
#148=ORIENTED_EDGE($,*,*,#124,.T.);
#149=ORIENTED_EDGE($,*,*,#119,.T.);
#150=ORIENTED_EDGE($,*,*,#123,.F.);
#151=ORIENTED_EDGE($,*,*,#122,.T.);
#152=ORIENTED_EDGE($,*,*,#118,.T.);
#153=CONICAL_SURFACE($,#174,26.7532355032691,40.3859950710674);
#154=CONICAL_SURFACE($,#177,26.7532355032691,49.6140049289328);
#155=CONICAL_SURFACE($,#181,26.75,44.9999999999992);
#156=CONICAL_SURFACE($,#184,26.75,44.9999999999992);
#157=ADVANCED_FACE($,(#43,#27),#153,.T.);
#158=ADVANCED_FACE($,(#44,#28),#154,.T.);
#159=ADVANCED_FACE($,(#45,#29),#21,.T.);
#160=ADVANCED_FACE($,(#46,#30),#155,.T.);
#161=ADVANCED_FACE($,(#47,#31),#156,.T.);
#162=ADVANCED_FACE($,(#48,#32),#22,.T.);
#163=ADVANCED_FACE($,(#49,#33),#23,.F.);
#164=ADVANCED_FACE($,(#50,#34),#19,.F.);
#165=ADVANCED_FACE($,(#51,#35),#24,.F.);
#166=ADVANCED_FACE($,(#52,#36),#25,.T.);
#167=ADVANCED_FACE($,(#53,#37),#20,.T.);
#168=ADVANCED_FACE($,(#54,#38),#26,.T.);
#169=ADVANCED_FACE($,(#39,#40),#17,.F.);
#170=ADVANCED_FACE($,(#41,#42),#18,.T.);
#171=CLOSED_SHELL($,(#157,#158,#159,#160,#161,#162,#163,#164,#165,#166,
#167,#168,#169,#170));
#172=MANIFOLD_SOLID_BREP('Volumenk\X\F6rper1',#171);
#173=AXIS2_PLACEMENT_3D('placement',#266,#204,#205);
#174=AXIS2_PLACEMENT_3D($,#267,#206,#207);
#175=AXIS2_PLACEMENT_3D($,#269,#208,#209);
#176=AXIS2_PLACEMENT_3D($,#271,#210,#211);
#177=AXIS2_PLACEMENT_3D($,#272,#212,#213);
#178=AXIS2_PLACEMENT_3D($,#274,#214,#215);
#179=AXIS2_PLACEMENT_3D($,#275,#216,#217);
#180=AXIS2_PLACEMENT_3D($,#277,#218,#219);
#181=AXIS2_PLACEMENT_3D($,#278,#220,#221);
#182=AXIS2_PLACEMENT_3D($,#280,#222,#223);
#183=AXIS2_PLACEMENT_3D($,#282,#224,#225);
#184=AXIS2_PLACEMENT_3D($,#283,#226,#227);
#185=AXIS2_PLACEMENT_3D($,#285,#228,#229);
#186=AXIS2_PLACEMENT_3D($,#286,#230,#231);
#187=AXIS2_PLACEMENT_3D($,#288,#232,#233);
#188=AXIS2_PLACEMENT_3D($,#289,#234,#235);
#189=AXIS2_PLACEMENT_3D($,#291,#236,#237);
#190=AXIS2_PLACEMENT_3D($,#293,#238,#239);
#191=AXIS2_PLACEMENT_3D($,#294,#240,#241);
#192=AXIS2_PLACEMENT_3D($,#296,#242,#243);
#193=AXIS2_PLACEMENT_3D($,#297,#244,#245);
#194=AXIS2_PLACEMENT_3D($,#299,#246,#247);
#195=AXIS2_PLACEMENT_3D($,#300,#248,#249);
#196=AXIS2_PLACEMENT_3D($,#302,#250,#251);
#197=AXIS2_PLACEMENT_3D($,#303,#252,#253);
#198=AXIS2_PLACEMENT_3D($,#305,#254,#255);
#199=AXIS2_PLACEMENT_3D($,#306,#256,#257);
#200=AXIS2_PLACEMENT_3D($,#307,#258,#259);
#201=AXIS2_PLACEMENT_3D($,#308,#260,#261);
#202=AXIS2_PLACEMENT_3D('placement',#309,#262,#263);
#203=AXIS2_PLACEMENT_3D($,#310,#264,#265);
#204=DIRECTION('axis',(0.,0.,1.));
#205=DIRECTION('refdir',(1.,0.,0.));
#206=DIRECTION('center_axis',(0.258819045102521,0.965925826289068,0.));
#207=DIRECTION('ref_axis',(-0.965925826289068,0.258819045102521,0.));
#208=DIRECTION('center_axis',(0.25881904510252,0.965925826289069,0.));
#209=DIRECTION('ref_axis',(0.965925826289068,-0.25881904510252,0.));
#210=DIRECTION('center_axis',(-0.258819045102521,-0.965925826289068,0.));
#211=DIRECTION('ref_axis',(-0.965925826289068,0.258819045102521,0.));
#212=DIRECTION('center_axis',(-0.258819045102521,-0.965925826289068,0.));
#213=DIRECTION('ref_axis',(-0.965925826289068,0.258819045102521,0.));
#214=DIRECTION('center_axis',(-0.25881904510252,-0.965925826289069,0.));
#215=DIRECTION('ref_axis',(0.965925826289068,-0.25881904510252,0.));
#216=DIRECTION('center_axis',(0.25881904510252,0.965925826289069,0.));
#217=DIRECTION('ref_axis',(0.965925826289068,-0.25881904510252,0.));
#218=DIRECTION('center_axis',(-0.258819045102521,-0.965925826289068,0.));
#219=DIRECTION('ref_axis',(0.965925826289068,-0.258819045102521,0.));
#220=DIRECTION('center_axis',(0.,1.,0.));
#221=DIRECTION('ref_axis',(-1.,0.,0.));
#222=DIRECTION('center_axis',(0.,1.,0.));
#223=DIRECTION('ref_axis',(1.,0.,0.));
#224=DIRECTION('center_axis',(0.,-1.,0.));
#225=DIRECTION('ref_axis',(-1.,0.,0.));
#226=DIRECTION('center_axis',(0.,-1.,0.));
#227=DIRECTION('ref_axis',(-1.,0.,0.));
#228=DIRECTION('center_axis',(0.,-1.,0.));
#229=DIRECTION('ref_axis',(1.,0.,0.));
#230=DIRECTION('center_axis',(0.,1.,0.));
#231=DIRECTION('ref_axis',(1.,0.,0.));
#232=DIRECTION('center_axis',(0.,-1.,0.));
#233=DIRECTION('ref_axis',(1.,0.,0.));
#234=DIRECTION('center_axis',(0.25881904510252,0.965925826289069,0.));
#235=DIRECTION('ref_axis',(0.965925826289068,-0.25881904510252,0.));
#236=DIRECTION('center_axis',(-0.25881904510252,-0.965925826289069,0.));
#237=DIRECTION('ref_axis',(0.965925826289068,-0.25881904510252,0.));
#238=DIRECTION('center_axis',(-0.258819045102521,-0.965925826289068,0.));
#239=DIRECTION('ref_axis',(0.965925826289068,-0.258819045102521,0.));
#240=DIRECTION('center_axis',(0.,0.,-1.));
#241=DIRECTION('ref_axis',(-1.,0.,0.));
#242=DIRECTION('center_axis',(0.,-1.,0.));
#243=DIRECTION('ref_axis',(1.,0.,0.));
#244=DIRECTION('center_axis',(0.,1.,0.));
#245=DIRECTION('ref_axis',(1.,0.,0.));
#246=DIRECTION('center_axis',(0.,1.,0.));
#247=DIRECTION('ref_axis',(1.,0.,0.));
#248=DIRECTION('center_axis',(0.25881904510252,0.965925826289069,0.));
#249=DIRECTION('ref_axis',(0.965925826289068,-0.25881904510252,0.));
#250=DIRECTION('center_axis',(-0.258819045102521,-0.965925826289068,0.));
#251=DIRECTION('ref_axis',(0.965925826289068,-0.258819045102521,0.));
#252=DIRECTION('center_axis',(0.,0.,-1.));
#253=DIRECTION('ref_axis',(-1.,0.,0.));
#254=DIRECTION('center_axis',(0.,-1.,0.));
#255=DIRECTION('ref_axis',(1.,0.,0.));
#256=DIRECTION('center_axis',(0.,1.,0.));
#257=DIRECTION('ref_axis',(1.,0.,0.));
#258=DIRECTION('center_axis',(-0.25881904510252,-0.965925826289069,0.));
#259=DIRECTION('ref_axis',(0.,0.,-1.));
#260=DIRECTION('center_axis',(0.,-1.,0.));
#261=DIRECTION('ref_axis',(0.,0.,-1.));
#262=DIRECTION('axis',(0.,0.,1.));
#263=DIRECTION('refdir',(1.,0.,0.));
#264=DIRECTION($,(0.,0.,1.));
#265=DIRECTION($,(1.,0.,0.));
#266=CARTESIAN_POINT('',(0.,0.,0.));
#267=CARTESIAN_POINT('Origin',(20.0041475319549,411.656494951359,0.));
#268=CARTESIAN_POINT('',(-6.00076871878922,418.924815496228,0.));
#269=CARTESIAN_POINT('Origin',(20.0792285910156,411.93670127846,0.));
#270=CARTESIAN_POINT('',(-5.67421843610362,418.236668139208,0.));
#271=CARTESIAN_POINT('Origin',(19.9290664728941,411.376288624258,0.));
#272=CARTESIAN_POINT('Origin',(19.8747380094036,411.173532038215,0.));
#273=CARTESIAN_POINT('',(-6.25958776389176,417.958889669939,0.));
#274=CARTESIAN_POINT('Origin',(19.8204095459131,410.970775452171,0.));
#275=CARTESIAN_POINT('Origin',(3.06667563398385,348.444989276361,0.));
#276=CARTESIAN_POINT('',(-23.013321675821,355.433103494129,3.30654635769785E-015));
#277=CARTESIAN_POINT('Origin',(3.06667563398385,348.444989276361,0.));
#278=CARTESIAN_POINT('Origin',(0.,260.25,0.));
#279=CARTESIAN_POINT('',(-27.,260.5,0.));
#280=CARTESIAN_POINT('Origin',(0.,260.5,0.));
#281=CARTESIAN_POINT('',(-26.5,260.,0.));
#282=CARTESIAN_POINT('Origin',(0.,260.,0.));
#283=CARTESIAN_POINT('Origin',(0.,259.75,0.));
#284=CARTESIAN_POINT('',(-27.,259.5,0.));
#285=CARTESIAN_POINT('Origin',(0.,259.5,0.));
#286=CARTESIAN_POINT('Origin',(0.,0.,0.));
#287=CARTESIAN_POINT('',(-27.,0.,3.30654635769785E-015));
#288=CARTESIAN_POINT('Origin',(0.,0.,0.));
#289=CARTESIAN_POINT('Origin',(3.06667563398385,348.444989276361,0.));
#290=CARTESIAN_POINT('',(7.42777784528082,461.313426934829,3.06161699786838E-015));
#291=CARTESIAN_POINT('Origin',(31.5759235025075,454.842950807266,0.));
#292=CARTESIAN_POINT('',(-21.0814700232429,354.915465403924,3.06161699786838E-015));
#293=CARTESIAN_POINT('Origin',(3.06667563398385,348.444989276361,0.));
#294=CARTESIAN_POINT('Origin',(90.,325.151275217134,0.));
#295=CARTESIAN_POINT('',(-25.,325.151275217134,3.06161699786838E-015));
#296=CARTESIAN_POINT('Origin',(0.,325.151275217134,0.));
#297=CARTESIAN_POINT('Origin',(0.,0.,0.));
#298=CARTESIAN_POINT('',(-25.,0.,3.06161699786838E-015));
#299=CARTESIAN_POINT('Origin',(0.,0.,0.));
#300=CARTESIAN_POINT('Origin',(3.06667563398385,348.444989276361,0.));
#301=CARTESIAN_POINT('',(5.4959261927027,461.831065025034,3.30654635769785E-015));
#302=CARTESIAN_POINT('Origin',(31.5759235025075,454.842950807266,0.));
#303=CARTESIAN_POINT('Origin',(90.,325.151275217134,0.));
#304=CARTESIAN_POINT('',(-27.,325.151275217134,3.30654635769785E-015));
#305=CARTESIAN_POINT('Origin',(0.,325.151275217134,0.));
#306=CARTESIAN_POINT('Origin',(0.,0.,0.));
#307=CARTESIAN_POINT('Origin',(31.5759235025075,454.842950807266,0.));
#308=CARTESIAN_POINT('Origin',(0.,0.,0.));
#309=CARTESIAN_POINT('',(0.,0.,0.));
#310=CARTESIAN_POINT($,(0.,0.,0.));
#311=UNCERTAINTY_MEASURE_WITH_UNIT(LENGTH_MEASURE(0.01),#315,
'DISTANCE_ACCURACY_VALUE',
'Maximum model space distance between geometric entities at asserted c
onnectivities');
#312=UNCERTAINTY_MEASURE_WITH_UNIT(LENGTH_MEASURE(0.01),#315,
'DISTANCE_ACCURACY_VALUE',
'Maximum model space distance between geometric entities at asserted c
onnectivities');
#313=(
GEOMETRIC_REPRESENTATION_CONTEXT(3)
GLOBAL_UNCERTAINTY_ASSIGNED_CONTEXT((#311))
GLOBAL_UNIT_ASSIGNED_CONTEXT((#315,#318,#316))
REPRESENTATION_CONTEXT('','3D')
);
#314=(
GEOMETRIC_REPRESENTATION_CONTEXT(3)
GLOBAL_UNCERTAINTY_ASSIGNED_CONTEXT((#312))
GLOBAL_UNIT_ASSIGNED_CONTEXT((#315,#318,#316))
REPRESENTATION_CONTEXT('','3D')
);
#315=(
LENGTH_UNIT()
NAMED_UNIT(*)
SI_UNIT(.MILLI.,.METRE.)
);
#316=(
NAMED_UNIT(*)
SI_UNIT($,.STERADIAN.)
SOLID_ANGLE_UNIT()
);
#317=DIMENSIONAL_EXPONENTS(0.,0.,0.,0.,0.,0.,0.);
#318=(
CONVERSION_BASED_UNIT('degree',#320)
NAMED_UNIT(#317)
PLANE_ANGLE_UNIT()
);
#319=(
NAMED_UNIT(*)
PLANE_ANGLE_UNIT()
SI_UNIT($,.RADIAN.)
);
#320=PLANE_ANGLE_MEASURE_WITH_UNIT(PLANE_ANGLE_MEASURE(0.01745329252),#319);
#321=SHAPE_DEFINITION_REPRESENTATION(#323,#326);
#322=SHAPE_DEFINITION_REPRESENTATION(#324,#327);
#323=PRODUCT_DEFINITION_SHAPE('',$,#329);
#324=PRODUCT_DEFINITION_SHAPE('',$,#330);
#325=PRODUCT_DEFINITION_SHAPE($,$,#13);
#326=SHAPE_REPRESENTATION('',(#173),#313);
#327=SHAPE_REPRESENTATION('',(#202,#203),#314);
#328=PRODUCT_DEFINITION_CONTEXT('3D Mechanical Parts',#334,'design');
#329=PRODUCT_DEFINITION('30908','30908',#331,#328);
#330=PRODUCT_DEFINITION('30908','30908',#332,#328);
#331=PRODUCT_DEFINITION_FORMATION('',$,#336);
#332=PRODUCT_DEFINITION_FORMATION('',$,#337);
#333=APPLICATION_PROTOCOL_DEFINITION('international standard',
'automotive_design',2009,#334);
#334=APPLICATION_CONTEXT(
'Core Data for Automotive Mechanical Design Process');
#335=PRODUCT_CONTEXT('3D Mechanical Parts',#334,'mechanical');
#336=PRODUCT('30908','30908',$,(#335));
#337=PRODUCT('30908','30908',$,(#335));
#338=PRESENTATION_STYLE_ASSIGNMENT((#339));
#339=SURFACE_STYLE_USAGE(.BOTH.,#340);
#340=SURFACE_SIDE_STYLE($,(#341));
#341=SURFACE_STYLE_FILL_AREA(#342);
#342=FILL_AREA_STYLE($,(#343));
#343=FILL_AREA_STYLE_COLOUR($,#344);
#344=COLOUR_RGB('',1.,1.,1.);
ENDSEC;
END-ISO-10303-21;
