ISO-10303-21;
HEADER;
/****************************************************************
 * Generated by software with PDE/Lib inside                    *
 * PDElib Version v51a, created Thu 12/14/2006                  *
 * International Technegroup Inc. (www.iti-oh.com)              *
 ****************************************************************/
FILE_DESCRIPTION((''),'2;1');
FILE_NAME('T:\\Arbeitspl\S\dtze\\Aushilfe\\KPeters\\3D\\Steps 08_10\\10157\\10157025X000.stp','2010-09-07T11:18:32',('thilbrands'),(''),'Autodesk Inventor 2008','Autodesk Inventor 2008','');
FILE_SCHEMA(('AUTOMOTIVE_DESIGN { 1 0 10303 214 1 1 1 1 }'));
ENDSEC;
DATA;
#5=APPLICATION_CONTEXT('automotive design');
#6=APPLICATION_PROTOCOL_DEFINITION('International Standard','automotive_design',2001,#5);
#7=PRODUCT_CONTEXT('',#5,'mechanical');
#8=PRODUCT('10157025X000','10157025X000',$,(#7));
#9=PRODUCT_RELATED_PRODUCT_CATEGORY('part',$,(#8));
#10=PRODUCT_DEFINITION_FORMATION('',$,#8);
#11=PRODUCT_DEFINITION_CONTEXT('part definition',#5,'design');
#12=PRODUCT_DEFINITION('',$,#10,#11);
#18=(NAMED_UNIT(*)PLANE_ANGLE_UNIT()SI_UNIT($,.RADIAN.));
#19=DIMENSIONAL_EXPONENTS(0.0,0.0,0.0,0.0,0.0,0.0,0.0);
#20=PLANE_ANGLE_MEASURE_WITH_UNIT(PLANE_ANGLE_MEASURE(0.017453292500000),#18);
#24=(CONVERSION_BASED_UNIT('DEGREE',#20)NAMED_UNIT(#19)PLANE_ANGLE_UNIT());
#28=(NAMED_UNIT(*)SI_UNIT($,.STERADIAN.)SOLID_ANGLE_UNIT());
#32=(LENGTH_UNIT()NAMED_UNIT(*)SI_UNIT(.MILLI.,.METRE.));
#34=UNCERTAINTY_MEASURE_WITH_UNIT(LENGTH_MEASURE(0.010000000000000),#32,'DISTANCE_ACCURACY_VALUE','');
#36=(GEOMETRIC_REPRESENTATION_CONTEXT(3)GLOBAL_UNCERTAINTY_ASSIGNED_CONTEXT((#34))GLOBAL_UNIT_ASSIGNED_CONTEXT((#24,#28,#32))REPRESENTATION_CONTEXT('None','None'));
#37=AXIS2_PLACEMENT_3D('',#38,#39,#40);
#38=CARTESIAN_POINT('',(0.0,0.0,0.0));
#39=DIRECTION('',(0.0,0.0,1.0));
#40=DIRECTION('',(1.0,0.0,0.0));
#41=SHAPE_REPRESENTATION('',(#37),#36);
#42=PRODUCT_DEFINITION_SHAPE('','',#12);
#43=SHAPE_DEFINITION_REPRESENTATION(#42,#41);
#49=(NAMED_UNIT(*)PLANE_ANGLE_UNIT()SI_UNIT($,.RADIAN.));
#50=DIMENSIONAL_EXPONENTS(0.0,0.0,0.0,0.0,0.0,0.0,0.0);
#51=PLANE_ANGLE_MEASURE_WITH_UNIT(PLANE_ANGLE_MEASURE(0.017453292500000),#49);
#55=(CONVERSION_BASED_UNIT('DEGREE',#51)NAMED_UNIT(#50)PLANE_ANGLE_UNIT());
#59=(NAMED_UNIT(*)SI_UNIT($,.STERADIAN.)SOLID_ANGLE_UNIT());
#63=(LENGTH_UNIT()NAMED_UNIT(*)SI_UNIT(.MILLI.,.METRE.));
#65=UNCERTAINTY_MEASURE_WITH_UNIT(LENGTH_MEASURE(0.000001000000000),#63,'DISTANCE_ACCURACY_VALUE','');
#67=(GEOMETRIC_REPRESENTATION_CONTEXT(3)GLOBAL_UNCERTAINTY_ASSIGNED_CONTEXT((#65))GLOBAL_UNIT_ASSIGNED_CONTEXT((#55,#59,#63))REPRESENTATION_CONTEXT('','3D'));
#68=CARTESIAN_POINT('',(2.289833969432213,0.0,0.0));
#69=DIRECTION('',(1.0,0.0,0.0));
#70=DIRECTION('',(0.0,0.0,-1.0));
#71=AXIS2_PLACEMENT_3D('',#68,#69,#70);
#72=TOROIDAL_SURFACE('',#71,16.200000000000003,0.800000000000000);
#73=CARTESIAN_POINT('',(2.289833969432213,17.0,0.0));
#74=VERTEX_POINT('',#73);
#75=CARTESIAN_POINT('',(2.289833969432213,0.0,0.0));
#76=DIRECTION('',(1.0,0.0,0.0));
#77=DIRECTION('',(0.0,-1.0,0.0));
#78=AXIS2_PLACEMENT_3D('',#75,#76,#77);
#79=CIRCLE('',#78,17.0);
#80=EDGE_CURVE('',#74,#74,#79,.T.);
#81=ORIENTED_EDGE('',*,*,#80,.T.);
#82=EDGE_LOOP('',(#81));
#83=FACE_OUTER_BOUND('',#82,.T.);
#84=CARTESIAN_POINT('',(3.041588066060940,16.473616114660533,-4.034739E-015));
#85=VERTEX_POINT('',#84);
#86=CARTESIAN_POINT('',(3.041588066060940,0.0,-2.017369E-015));
#87=DIRECTION('',(-1.0,0.0,0.0));
#88=DIRECTION('',(0.0,-1.0,0.0));
#89=AXIS2_PLACEMENT_3D('',#86,#87,#88);
#90=CIRCLE('',#89,16.473616114660533);
#91=EDGE_CURVE('',#85,#85,#90,.T.);
#92=ORIENTED_EDGE('',*,*,#91,.T.);
#93=EDGE_LOOP('',(#92));
#94=FACE_BOUND('',#93,.T.);
#95=ADVANCED_FACE('',(#83,#94),#72,.T.);
#96=CARTESIAN_POINT('',(4.924999999999992,0.0,0.0));
#97=DIRECTION('',(-1.0,0.0,0.0));
#98=DIRECTION('',(0.0,1.0,0.0));
#99=AXIS2_PLACEMENT_3D('',#96,#97,#98);
#100=CONICAL_SURFACE('',#99,11.298984354631594,70.000000000000128);
#101=CARTESIAN_POINT('',(6.879385241571820,5.929355034497591,-1.232595E-031));
#102=VERTEX_POINT('',#101);
#103=CARTESIAN_POINT('',(6.879385241571820,0.0,-7.261126E-016));
#104=DIRECTION('',(1.0,0.0,0.0));
#105=DIRECTION('',(0.0,-1.0,0.0));
#106=AXIS2_PLACEMENT_3D('',#103,#104,#105);
#107=CIRCLE('',#106,5.929355034497591);
#108=EDGE_CURVE('',#102,#102,#107,.T.);
#109=ORIENTED_EDGE('',*,*,#108,.F.);
#110=EDGE_LOOP('',(#109));
#111=FACE_OUTER_BOUND('',#110,.T.);
#112=ORIENTED_EDGE('',*,*,#91,.F.);
#113=EDGE_LOOP('',(#112));
#114=FACE_BOUND('',#113,.T.);
#115=ADVANCED_FACE('',(#111,#114),#100,.T.);
#116=CARTESIAN_POINT('',(1.424999999999981,0.0,0.0));
#117=DIRECTION('',(1.0,0.0,0.0));
#118=DIRECTION('',(0.0,1.0,0.0));
#119=AXIS2_PLACEMENT_3D('',#116,#117,#118);
#120=CYLINDRICAL_SURFACE('',#119,17.0);
#121=CARTESIAN_POINT('',(-1.915135E-014,17.0,0.0));
#122=VERTEX_POINT('',#121);
#123=CARTESIAN_POINT('',(-1.915135E-014,0.0,0.0));
#124=DIRECTION('',(1.0,0.0,0.0));
#125=DIRECTION('',(0.0,1.0,0.0));
#126=AXIS2_PLACEMENT_3D('',#123,#124,#125);
#127=CIRCLE('',#126,17.0);
#128=EDGE_CURVE('',#122,#122,#127,.T.);
#129=ORIENTED_EDGE('',*,*,#128,.T.);
#130=EDGE_LOOP('',(#129));
#131=FACE_OUTER_BOUND('',#130,.T.);
#132=ORIENTED_EDGE('',*,*,#80,.F.);
#133=EDGE_LOOP('',(#132));
#134=FACE_BOUND('',#133,.T.);
#135=ADVANCED_FACE('',(#131,#134),#120,.T.);
#136=CARTESIAN_POINT('',(5.000000000000002,0.0,0.0));
#137=DIRECTION('',(1.0,0.0,0.0));
#138=DIRECTION('',(0.0,0.0,-1.0));
#139=AXIS2_PLACEMENT_3D('',#136,#137,#138);
#140=TOROIDAL_SURFACE('',#139,5.245314747846257,2.0);
#141=ORIENTED_EDGE('',*,*,#108,.T.);
#142=EDGE_LOOP('',(#141));
#143=FACE_OUTER_BOUND('',#142,.T.);
#144=CARTESIAN_POINT('',(7.000000000000002,5.245314747846257,-1.284689E-015));
#145=VERTEX_POINT('',#144);
#146=CARTESIAN_POINT('',(7.000000000000002,0.0,0.0));
#147=DIRECTION('',(-1.0,0.0,0.0));
#148=DIRECTION('',(0.0,-1.0,0.0));
#149=AXIS2_PLACEMENT_3D('',#146,#147,#148);
#150=CIRCLE('',#149,5.245314747846257);
#151=EDGE_CURVE('',#145,#145,#150,.T.);
#152=ORIENTED_EDGE('',*,*,#151,.T.);
#153=EDGE_LOOP('',(#152));
#154=FACE_BOUND('',#153,.T.);
#155=ADVANCED_FACE('',(#143,#154),#140,.T.);
#156=CARTESIAN_POINT('',(7.000000000000002,2.798984354631594,0.0));
#157=DIRECTION('',(1.0,0.0,0.0));
#158=DIRECTION('',(0.0,0.0,-1.0));
#159=AXIS2_PLACEMENT_3D('',#156,#157,#158);
#160=PLANE('',#159);
#161=ORIENTED_EDGE('',*,*,#151,.F.);
#162=EDGE_LOOP('',(#161));
#163=FACE_OUTER_BOUND('',#162,.T.);
#164=ADVANCED_FACE('',(#163),#160,.T.);
#165=CARTESIAN_POINT('',(-2.295512E-014,5.873534585836629,0.0));
#166=DIRECTION('',(-1.0,0.0,0.0));
#167=DIRECTION('',(0.0,0.0,1.0));
#168=AXIS2_PLACEMENT_3D('',#165,#166,#167);
#169=PLANE('',#168);
#170=CARTESIAN_POINT('',(-6.938894E-016,11.747069171673258,0.0));
#171=VERTEX_POINT('',#170);
#172=CARTESIAN_POINT('',(-6.938894E-016,0.0,0.0));
#173=DIRECTION('',(1.0,0.0,0.0));
#174=DIRECTION('',(0.0,1.0,0.0));
#175=AXIS2_PLACEMENT_3D('',#172,#173,#174);
#176=CIRCLE('',#175,11.747069171673258);
#177=EDGE_CURVE('',#171,#171,#176,.T.);
#178=ORIENTED_EDGE('',*,*,#177,.F.);
#179=EDGE_LOOP('',(#178));
#180=FACE_OUTER_BOUND('',#179,.T.);
#181=ADVANCED_FACE('',(#180),#169,.T.);
#182=CARTESIAN_POINT('',(0.799999999999999,0.0,0.0));
#183=DIRECTION('',(1.0,0.0,0.0));
#184=DIRECTION('',(0.0,0.0,-1.0));
#185=AXIS2_PLACEMENT_3D('',#182,#183,#184);
#186=TOROIDAL_SURFACE('',#185,11.747069171673258,0.799999999999997);
#187=CARTESIAN_POINT('',(0.487415097208576,12.483473054435205,0.0));
#188=VERTEX_POINT('',#187);
#189=CARTESIAN_POINT('',(0.487415097208576,0.0,0.0));
#190=DIRECTION('',(1.0,0.0,0.0));
#191=DIRECTION('',(0.0,1.0,0.0));
#192=AXIS2_PLACEMENT_3D('',#189,#190,#191);
#193=CIRCLE('',#192,12.483473054435205);
#194=EDGE_CURVE('',#188,#188,#193,.T.);
#195=ORIENTED_EDGE('',*,*,#194,.F.);
#196=EDGE_LOOP('',(#195));
#197=FACE_OUTER_BOUND('',#196,.T.);
#198=ORIENTED_EDGE('',*,*,#177,.T.);
#199=EDGE_LOOP('',(#198));
#200=FACE_BOUND('',#199,.T.);
#201=ADVANCED_FACE('',(#197,#200),#186,.T.);
#202=CARTESIAN_POINT('',(0.678146225697844,0.0,0.0));
#203=DIRECTION('',(1.0,0.0,0.0));
#204=DIRECTION('',(0.0,1.0,0.0));
#205=AXIS2_PLACEMENT_3D('',#202,#203,#204);
#206=CONICAL_SURFACE('',#205,12.564433615146143,23.000000000000732);
#207=CARTESIAN_POINT('',(0.868877354187112,12.645394175857076,0.0));
#208=VERTEX_POINT('',#207);
#209=CARTESIAN_POINT('',(0.868877354187112,0.0,0.0));
#210=DIRECTION('',(1.0,0.0,0.0));
#211=DIRECTION('',(0.0,1.0,0.0));
#212=AXIS2_PLACEMENT_3D('',#209,#210,#211);
#213=CIRCLE('',#212,12.645394175857076);
#214=EDGE_CURVE('',#208,#208,#213,.T.);
#215=ORIENTED_EDGE('',*,*,#214,.F.);
#216=EDGE_LOOP('',(#215));
#217=FACE_OUTER_BOUND('',#216,.T.);
#218=ORIENTED_EDGE('',*,*,#194,.T.);
#219=EDGE_LOOP('',(#218));
#220=FACE_BOUND('',#219,.T.);
#221=ADVANCED_FACE('',(#217,#220),#206,.T.);
#222=CARTESIAN_POINT('',(0.868877354187104,-1.819104E-015,14.854605824142928));
#223=CARTESIAN_POINT('',(1.599999999999975,-1.781100E-015,14.544262673434829));
#224=CARTESIAN_POINT('',(1.599999999999975,-1.683834E-015,13.750000000000000));
#225=CARTESIAN_POINT('',(1.599999999999975,-1.586568E-015,12.955737326565171));
#226=CARTESIAN_POINT('',(0.868877354187104,-1.548563E-015,12.645394175857072));
#227=CARTESIAN_POINT('',(0.868877354187104,-14.854605824142926,14.854605824142920));
#228=CARTESIAN_POINT('',(1.599999999999975,-14.544262673434828,14.544262673434826));
#229=CARTESIAN_POINT('',(1.599999999999975,-13.749999999999996,13.749999999999995));
#230=CARTESIAN_POINT('',(1.599999999999975,-12.955737326565169,12.955737326565165));
#231=CARTESIAN_POINT('',(0.868877354187104,-12.645394175857071,12.645394175857067));
#232=CARTESIAN_POINT('',(0.868877354187104,-14.854605824142928,-1.819104E-015));
#233=CARTESIAN_POINT('',(1.599999999999975,-14.544262673434829,-1.781100E-015));
#234=CARTESIAN_POINT('',(1.599999999999975,-13.750000000000000,-1.683834E-015));
#235=CARTESIAN_POINT('',(1.599999999999975,-12.955737326565171,-1.586568E-015));
#236=CARTESIAN_POINT('',(0.868877354187104,-12.645394175857072,-1.548563E-015));
#237=CARTESIAN_POINT('',(0.868877354187104,-14.854605824142920,-14.854605824142926));
#238=CARTESIAN_POINT('',(1.599999999999975,-14.544262673434826,-14.544262673434828));
#239=CARTESIAN_POINT('',(1.599999999999975,-13.749999999999995,-13.749999999999996));
#240=CARTESIAN_POINT('',(1.599999999999975,-12.955737326565165,-12.955737326565169));
#241=CARTESIAN_POINT('',(0.868877354187104,-12.645394175857067,-12.645394175857071));
#242=CARTESIAN_POINT('',(0.868877354187104,1.819104E-015,-14.854605824142928));
#243=CARTESIAN_POINT('',(1.599999999999975,1.781100E-015,-14.544262673434829));
#244=CARTESIAN_POINT('',(1.599999999999975,1.683834E-015,-13.750000000000000));
#245=CARTESIAN_POINT('',(1.599999999999975,1.586568E-015,-12.955737326565171));
#246=CARTESIAN_POINT('',(0.868877354187104,1.548563E-015,-12.645394175857072));
#247=CARTESIAN_POINT('',(0.868877354187104,14.854605824142926,-14.854605824142920));
#248=CARTESIAN_POINT('',(1.599999999999975,14.544262673434828,-14.544262673434826));
#249=CARTESIAN_POINT('',(1.599999999999975,13.749999999999996,-13.749999999999995));
#250=CARTESIAN_POINT('',(1.599999999999975,12.955737326565169,-12.955737326565165));
#251=CARTESIAN_POINT('',(0.868877354187104,12.645394175857071,-12.645394175857067));
#252=CARTESIAN_POINT('',(0.868877354187104,14.854605824142928,1.819104E-015));
#253=CARTESIAN_POINT('',(1.599999999999975,14.544262673434829,1.781100E-015));
#254=CARTESIAN_POINT('',(1.599999999999975,13.750000000000000,1.683834E-015));
#255=CARTESIAN_POINT('',(1.599999999999975,12.955737326565171,1.586568E-015));
#256=CARTESIAN_POINT('',(0.868877354187104,12.645394175857072,1.548563E-015));
#257=CARTESIAN_POINT('',(0.868877354187104,14.854605824142920,14.854605824142926));
#258=CARTESIAN_POINT('',(1.599999999999975,14.544262673434826,14.544262673434828));
#259=CARTESIAN_POINT('',(1.599999999999975,13.749999999999995,13.749999999999996));
#260=CARTESIAN_POINT('',(1.599999999999975,12.955737326565165,12.955737326565169));
#261=CARTESIAN_POINT('',(0.868877354187104,12.645394175857067,12.645394175857071));
#262=CARTESIAN_POINT('',(0.868877354187104,-1.819104E-015,14.854605824142928));
#263=CARTESIAN_POINT('',(1.599999999999975,-1.781100E-015,14.544262673434829));
#264=CARTESIAN_POINT('',(1.599999999999975,-1.683834E-015,13.750000000000000));
#265=CARTESIAN_POINT('',(1.599999999999975,-1.586568E-015,12.955737326565171));
#266=CARTESIAN_POINT('',(0.868877354187104,-1.548563E-015,12.645394175857072));
#274=(BOUNDED_SURFACE()B_SPLINE_SURFACE(2,2,((#222,#227,#232,#237,#242,#247,#252,#257,#262),(#223,#228,#233,#238,#243,#248,#253,#258,#263),(#224,#229,#234,#239,#244,#249,#254,#259,#264),(#225,#230,#235,#240,#245,#250,#255,#260,#265),(#226,#231,#236,#241,#246,#251,#256,#261,#266)),.UNSPECIFIED.,.F.,.T.,.U.)B_SPLINE_SURFACE_WITH_KNOTS((3,2,3),(3,2,2,2,3),(0.401425727958696,1.570796326794897,2.740166925631097),(0.0,1.570796326794897,3.141592653589793,4.712388980384690,6.283185307179586),.UNSPECIFIED.)GEOMETRIC_REPRESENTATION_ITEM()RATIONAL_B_SPLINE_SURFACE(((1.0,0.707106781186548,1.0,0.707106781186548,1.0,0.707106781186548,1.0,0.707106781186548,1.0),(0.833885822067169,0.589646319519014,0.833885822067169,0.589646319519014,0.833885822067169,0.589646319519014,0.833885822067169,0.589646319519014,0.833885822067169),(1.0,0.707106781186548,1.0,0.707106781186548,1.0,0.707106781186548,1.0,0.707106781186548,1.0),(0.833885822067171,0.589646319519015,0.833885822067171,0.589646319519015,0.833885822067171,0.589646319519015,0.833885822067171,0.589646319519015,0.833885822067171),(1.0,0.707106781186548,1.0,0.707106781186548,1.0,0.707106781186548,1.0,0.707106781186548,1.0)))REPRESENTATION_ITEM('')SURFACE());
#275=CARTESIAN_POINT('',(0.868877354187104,14.854605824142928,0.0));
#276=VERTEX_POINT('',#275);
#277=CARTESIAN_POINT('',(0.868877354187104,0.0,0.0));
#278=DIRECTION('',(1.0,0.0,0.0));
#279=DIRECTION('',(0.0,1.0,0.0));
#280=AXIS2_PLACEMENT_3D('',#277,#278,#279);
#281=CIRCLE('',#280,14.854605824142928);
#282=EDGE_CURVE('',#276,#276,#281,.T.);
#283=ORIENTED_EDGE('',*,*,#282,.F.);
#284=EDGE_LOOP('',(#283));
#285=FACE_OUTER_BOUND('',#284,.T.);
#286=ORIENTED_EDGE('',*,*,#214,.T.);
#287=EDGE_LOOP('',(#286));
#288=FACE_BOUND('',#287,.T.);
#289=ADVANCED_FACE('',(#285,#288),#274,.T.);
#290=CARTESIAN_POINT('',(0.678146225697832,0.0,0.0));
#291=DIRECTION('',(-1.0,0.0,0.0));
#292=DIRECTION('',(0.0,1.0,0.0));
#293=AXIS2_PLACEMENT_3D('',#290,#291,#292);
#294=CONICAL_SURFACE('',#293,14.935566384853862,23.000000000000263);
#295=CARTESIAN_POINT('',(0.487415097208560,15.016526945564799,0.0));
#296=VERTEX_POINT('',#295);
#297=CARTESIAN_POINT('',(0.487415097208560,0.0,0.0));
#298=DIRECTION('',(1.0,0.0,0.0));
#299=DIRECTION('',(0.0,1.0,0.0));
#300=AXIS2_PLACEMENT_3D('',#297,#298,#299);
#301=CIRCLE('',#300,15.016526945564799);
#302=EDGE_CURVE('',#296,#296,#301,.T.);
#303=ORIENTED_EDGE('',*,*,#302,.F.);
#304=EDGE_LOOP('',(#303));
#305=FACE_OUTER_BOUND('',#304,.T.);
#306=ORIENTED_EDGE('',*,*,#282,.T.);
#307=EDGE_LOOP('',(#306));
#308=FACE_BOUND('',#307,.T.);
#309=ADVANCED_FACE('',(#305,#308),#294,.F.);
#310=CARTESIAN_POINT('',(0.799999999999979,0.0,0.0));
#311=DIRECTION('',(1.0,0.0,0.0));
#312=DIRECTION('',(0.0,0.0,-1.0));
#313=AXIS2_PLACEMENT_3D('',#310,#311,#312);
#314=TOROIDAL_SURFACE('',#313,15.752930828326750,0.800000000000011);
#315=CARTESIAN_POINT('',(-2.164935E-014,15.752930828326752,0.0));
#316=VERTEX_POINT('',#315);
#317=CARTESIAN_POINT('',(-2.164935E-014,0.0,0.0));
#318=DIRECTION('',(1.0,0.0,0.0));
#319=DIRECTION('',(0.0,1.0,0.0));
#320=AXIS2_PLACEMENT_3D('',#317,#318,#319);
#321=CIRCLE('',#320,15.752930828326752);
#322=EDGE_CURVE('',#316,#316,#321,.T.);
#323=ORIENTED_EDGE('',*,*,#322,.F.);
#324=EDGE_LOOP('',(#323));
#325=FACE_OUTER_BOUND('',#324,.T.);
#326=ORIENTED_EDGE('',*,*,#302,.T.);
#327=EDGE_LOOP('',(#326));
#328=FACE_BOUND('',#327,.T.);
#329=ADVANCED_FACE('',(#325,#328),#314,.T.);
#330=CARTESIAN_POINT('',(-2.040035E-014,16.376465414163377,0.0));
#331=DIRECTION('',(-1.0,0.0,0.0));
#332=DIRECTION('',(0.0,0.0,1.0));
#333=AXIS2_PLACEMENT_3D('',#330,#331,#332);
#334=PLANE('',#333);
#335=ORIENTED_EDGE('',*,*,#128,.F.);
#336=EDGE_LOOP('',(#335));
#337=FACE_OUTER_BOUND('',#336,.T.);
#338=ORIENTED_EDGE('',*,*,#322,.T.);
#339=EDGE_LOOP('',(#338));
#340=FACE_BOUND('',#339,.T.);
#341=ADVANCED_FACE('',(#337,#340),#334,.T.);
#342=CLOSED_SHELL('',(#95,#115,#135,#155,#164,#181,#201,#221,#289,#309,#329,#341));
#343=MANIFOLD_SOLID_BREP('',#342);
#344=COLOUR_RGB('Standard',0.752941012382507,0.752941012382507,0.752941012382507);
#345=FILL_AREA_STYLE_COLOUR('Standard',#344);
#346=FILL_AREA_STYLE('Standard',(#345));
#347=SURFACE_STYLE_FILL_AREA(#346);
#348=SURFACE_SIDE_STYLE('Standard',(#347));
#349=SURFACE_STYLE_USAGE(.BOTH.,#348);
#350=PRESENTATION_STYLE_ASSIGNMENT((#349));
#351=STYLED_ITEM('',(#350),#343);
#352=MECHANICAL_DESIGN_GEOMETRIC_PRESENTATION_REPRESENTATION('',(#351),#36);
#353=ADVANCED_BREP_SHAPE_REPRESENTATION('ABSR',(#343),#36);
#354=SHAPE_REPRESENTATION_RELATIONSHIP('SRR','None',#353,#41);
ENDSEC;
END-ISO-10303-21;
