ISO-10303-21;
HEADER;
/* Generated by software containing ST-Developer
 * from STEP Tools, Inc. (www.steptools.com) 
 */

FILE_DESCRIPTION(
/* description */ (''),
/* implementation_level */ '2;1');

FILE_NAME(
/* name */ '43215.stp',
/* time_stamp */ '2023-09-08T11:22:57+02:00',
/* author */ ('JANAN'),
/* organization */ (''),
/* preprocessor_version */ 'ST-DEVELOPER v19.2',
/* originating_system */ 'Autodesk Inventor 2023',
/* authorisation */ '');

FILE_SCHEMA (('AUTOMOTIVE_DESIGN { 1 0 10303 214 3 1 1 }'));
ENDSEC;

DATA;
#10=MECHANICAL_DESIGN_GEOMETRIC_PRESENTATION_REPRESENTATION('',(#206,#207,
#208,#209,#210,#211,#212,#213,#214,#215,#216,#217,#218,#219,#220,#221,#222),
#451);
#11=SHAPE_REPRESENTATION_RELATIONSHIP('SRR','None',#458,#12);
#12=ADVANCED_BREP_SHAPE_REPRESENTATION('',(#13),#450);
#13=MANIFOLD_SOLID_BREP('Volumenk\X\F6rper1',#239);
#14=FACE_BOUND('',#72,.T.);
#15=FACE_BOUND('',#74,.T.);
#16=CONICAL_SURFACE('',#274,1.,0.785398163397);
#17=CONICAL_SURFACE('',#279,1.,0.785398163397);
#18=CONICAL_SURFACE('',#281,15.65,0.715584993318);
#19=CONICAL_SURFACE('',#293,14.8358712593,0.715584993318);
#20=PLANE('',#273);
#21=PLANE('',#297);
#22=PLANE('',#298);
#23=PLANE('',#299);
#24=LINE('',#394,#31);
#25=LINE('',#402,#32);
#26=LINE('',#411,#33);
#27=LINE('',#416,#34);
#28=LINE('',#419,#35);
#29=LINE('',#424,#36);
#30=LINE('',#442,#37);
#31=VECTOR('',#312,14.15);
#32=VECTOR('',#321,15.65);
#33=VECTOR('',#332,1.);
#34=VECTOR('',#339,14.4);
#35=VECTOR('',#342,1.);
#36=VECTOR('',#349,15.65);
#37=VECTOR('',#374,14.8358712593);
#38=CYLINDRICAL_SURFACE('',#266,14.15);
#39=CYLINDRICAL_SURFACE('',#269,15.65);
#40=CYLINDRICAL_SURFACE('',#277,14.4);
#41=FACE_OUTER_BOUND('',#57,.T.);
#42=FACE_OUTER_BOUND('',#58,.T.);
#43=FACE_OUTER_BOUND('',#59,.T.);
#44=FACE_OUTER_BOUND('',#60,.T.);
#45=FACE_OUTER_BOUND('',#61,.T.);
#46=FACE_OUTER_BOUND('',#62,.T.);
#47=FACE_OUTER_BOUND('',#63,.T.);
#48=FACE_OUTER_BOUND('',#64,.T.);
#49=FACE_OUTER_BOUND('',#65,.T.);
#50=FACE_OUTER_BOUND('',#66,.T.);
#51=FACE_OUTER_BOUND('',#67,.T.);
#52=FACE_OUTER_BOUND('',#68,.T.);
#53=FACE_OUTER_BOUND('',#69,.T.);
#54=FACE_OUTER_BOUND('',#70,.T.);
#55=FACE_OUTER_BOUND('',#71,.T.);
#56=FACE_OUTER_BOUND('',#73,.T.);
#57=EDGE_LOOP('',(#143,#144,#145,#146));
#58=EDGE_LOOP('',(#147,#148,#149,#150,#151));
#59=EDGE_LOOP('',(#152,#153,#154,#155,#156));
#60=EDGE_LOOP('',(#157));
#61=EDGE_LOOP('',(#158,#159,#160,#161));
#62=EDGE_LOOP('',(#162,#163,#164,#165));
#63=EDGE_LOOP('',(#166,#167,#168,#169));
#64=EDGE_LOOP('',(#170,#171,#172,#173));
#65=EDGE_LOOP('',(#174,#175,#176,#177));
#66=EDGE_LOOP('',(#178,#179,#180,#181));
#67=EDGE_LOOP('',(#182,#183,#184,#185,#186));
#68=EDGE_LOOP('',(#187,#188,#189,#190));
#69=EDGE_LOOP('',(#191,#192,#193,#194,#195));
#70=EDGE_LOOP('',(#196));
#71=EDGE_LOOP('',(#197));
#72=EDGE_LOOP('',(#198));
#73=EDGE_LOOP('',(#199));
#74=EDGE_LOOP('',(#200));
#75=CIRCLE('',#263,13.15);
#76=CIRCLE('',#264,1.);
#77=CIRCLE('',#265,14.15);
#78=CIRCLE('',#267,14.15);
#79=CIRCLE('',#268,14.15);
#80=CIRCLE('',#270,15.65);
#81=CIRCLE('',#271,15.65);
#82=CIRCLE('',#272,15.65);
#83=CIRCLE('',#275,14.4);
#84=CIRCLE('',#276,14.8);
#85=CIRCLE('',#278,14.4);
#86=CIRCLE('',#280,14.8);
#87=CIRCLE('',#282,17.7641287407);
#88=CIRCLE('',#284,16.6320643703);
#89=CIRCLE('',#285,1.5);
#90=CIRCLE('',#286,15.5);
#91=CIRCLE('',#288,15.5);
#92=CIRCLE('',#289,3.);
#93=CIRCLE('',#291,2.5);
#94=CIRCLE('',#292,13.15);
#95=CIRCLE('',#294,14.8358712593);
#96=CIRCLE('',#296,3.);
#97=VERTEX_POINT('',#387);
#98=VERTEX_POINT('',#389);
#99=VERTEX_POINT('',#393);
#100=VERTEX_POINT('',#395);
#101=VERTEX_POINT('',#399);
#102=VERTEX_POINT('',#401);
#103=VERTEX_POINT('',#403);
#104=VERTEX_POINT('',#408);
#105=VERTEX_POINT('',#410);
#106=VERTEX_POINT('',#414);
#107=VERTEX_POINT('',#418);
#108=VERTEX_POINT('',#422);
#109=VERTEX_POINT('',#426);
#110=VERTEX_POINT('',#428);
#111=VERTEX_POINT('',#432);
#112=VERTEX_POINT('',#436);
#113=VERTEX_POINT('',#440);
#114=EDGE_CURVE('',#97,#97,#75,.T.);
#115=EDGE_CURVE('',#97,#98,#76,.T.);
#116=EDGE_CURVE('',#98,#98,#77,.T.);
#117=EDGE_CURVE('',#98,#99,#24,.T.);
#118=EDGE_CURVE('',#99,#100,#78,.T.);
#119=EDGE_CURVE('',#100,#99,#79,.T.);
#120=EDGE_CURVE('',#101,#101,#80,.T.);
#121=EDGE_CURVE('',#101,#102,#25,.T.);
#122=EDGE_CURVE('',#102,#103,#81,.T.);
#123=EDGE_CURVE('',#103,#102,#82,.T.);
#124=EDGE_CURVE('',#104,#104,#83,.T.);
#125=EDGE_CURVE('',#104,#105,#26,.T.);
#126=EDGE_CURVE('',#105,#105,#84,.T.);
#127=EDGE_CURVE('',#106,#106,#85,.T.);
#128=EDGE_CURVE('',#106,#104,#27,.T.);
#129=EDGE_CURVE('',#106,#107,#28,.T.);
#130=EDGE_CURVE('',#107,#107,#86,.T.);
#131=EDGE_CURVE('',#108,#108,#87,.T.);
#132=EDGE_CURVE('',#108,#101,#29,.T.);
#133=EDGE_CURVE('',#109,#109,#88,.T.);
#134=EDGE_CURVE('',#109,#110,#89,.T.);
#135=EDGE_CURVE('',#110,#110,#90,.T.);
#136=EDGE_CURVE('',#111,#111,#91,.T.);
#137=EDGE_CURVE('',#111,#108,#92,.T.);
#138=EDGE_CURVE('',#103,#112,#93,.T.);
#139=EDGE_CURVE('',#112,#112,#94,.T.);
#140=EDGE_CURVE('',#113,#113,#95,.T.);
#141=EDGE_CURVE('',#113,#109,#30,.T.);
#142=EDGE_CURVE('',#100,#113,#96,.T.);
#143=ORIENTED_EDGE('',*,*,#114,.F.);
#144=ORIENTED_EDGE('',*,*,#115,.T.);
#145=ORIENTED_EDGE('',*,*,#116,.T.);
#146=ORIENTED_EDGE('',*,*,#115,.F.);
#147=ORIENTED_EDGE('',*,*,#116,.F.);
#148=ORIENTED_EDGE('',*,*,#117,.T.);
#149=ORIENTED_EDGE('',*,*,#118,.T.);
#150=ORIENTED_EDGE('',*,*,#119,.T.);
#151=ORIENTED_EDGE('',*,*,#117,.F.);
#152=ORIENTED_EDGE('',*,*,#120,.F.);
#153=ORIENTED_EDGE('',*,*,#121,.T.);
#154=ORIENTED_EDGE('',*,*,#122,.T.);
#155=ORIENTED_EDGE('',*,*,#123,.T.);
#156=ORIENTED_EDGE('',*,*,#121,.F.);
#157=ORIENTED_EDGE('',*,*,#114,.T.);
#158=ORIENTED_EDGE('',*,*,#124,.F.);
#159=ORIENTED_EDGE('',*,*,#125,.T.);
#160=ORIENTED_EDGE('',*,*,#126,.T.);
#161=ORIENTED_EDGE('',*,*,#125,.F.);
#162=ORIENTED_EDGE('',*,*,#127,.F.);
#163=ORIENTED_EDGE('',*,*,#128,.T.);
#164=ORIENTED_EDGE('',*,*,#124,.T.);
#165=ORIENTED_EDGE('',*,*,#128,.F.);
#166=ORIENTED_EDGE('',*,*,#127,.T.);
#167=ORIENTED_EDGE('',*,*,#129,.T.);
#168=ORIENTED_EDGE('',*,*,#130,.F.);
#169=ORIENTED_EDGE('',*,*,#129,.F.);
#170=ORIENTED_EDGE('',*,*,#131,.F.);
#171=ORIENTED_EDGE('',*,*,#132,.T.);
#172=ORIENTED_EDGE('',*,*,#120,.T.);
#173=ORIENTED_EDGE('',*,*,#132,.F.);
#174=ORIENTED_EDGE('',*,*,#133,.F.);
#175=ORIENTED_EDGE('',*,*,#134,.T.);
#176=ORIENTED_EDGE('',*,*,#135,.T.);
#177=ORIENTED_EDGE('',*,*,#134,.F.);
#178=ORIENTED_EDGE('',*,*,#136,.F.);
#179=ORIENTED_EDGE('',*,*,#137,.T.);
#180=ORIENTED_EDGE('',*,*,#131,.T.);
#181=ORIENTED_EDGE('',*,*,#137,.F.);
#182=ORIENTED_EDGE('',*,*,#122,.F.);
#183=ORIENTED_EDGE('',*,*,#123,.F.);
#184=ORIENTED_EDGE('',*,*,#138,.T.);
#185=ORIENTED_EDGE('',*,*,#139,.T.);
#186=ORIENTED_EDGE('',*,*,#138,.F.);
#187=ORIENTED_EDGE('',*,*,#140,.F.);
#188=ORIENTED_EDGE('',*,*,#141,.T.);
#189=ORIENTED_EDGE('',*,*,#133,.T.);
#190=ORIENTED_EDGE('',*,*,#141,.F.);
#191=ORIENTED_EDGE('',*,*,#119,.F.);
#192=ORIENTED_EDGE('',*,*,#142,.T.);
#193=ORIENTED_EDGE('',*,*,#140,.T.);
#194=ORIENTED_EDGE('',*,*,#142,.F.);
#195=ORIENTED_EDGE('',*,*,#118,.F.);
#196=ORIENTED_EDGE('',*,*,#139,.F.);
#197=ORIENTED_EDGE('',*,*,#136,.T.);
#198=ORIENTED_EDGE('',*,*,#126,.F.);
#199=ORIENTED_EDGE('',*,*,#135,.F.);
#200=ORIENTED_EDGE('',*,*,#130,.T.);
#201=TOROIDAL_SURFACE('',#262,13.15,1.);
#202=TOROIDAL_SURFACE('',#283,15.5,1.5);
#203=TOROIDAL_SURFACE('',#287,15.5,3.);
#204=TOROIDAL_SURFACE('',#290,13.15,2.5);
#205=TOROIDAL_SURFACE('',#295,17.1,3.);
#206=STYLED_ITEM('',(#467),#223);
#207=STYLED_ITEM('',(#467),#224);
#208=STYLED_ITEM('',(#467),#225);
#209=STYLED_ITEM('',(#467),#226);
#210=STYLED_ITEM('',(#467),#227);
#211=STYLED_ITEM('',(#467),#228);
#212=STYLED_ITEM('',(#467),#229);
#213=STYLED_ITEM('',(#467),#230);
#214=STYLED_ITEM('',(#467),#231);
#215=STYLED_ITEM('',(#467),#232);
#216=STYLED_ITEM('',(#467),#233);
#217=STYLED_ITEM('',(#467),#234);
#218=STYLED_ITEM('',(#467),#235);
#219=STYLED_ITEM('',(#467),#236);
#220=STYLED_ITEM('',(#467),#237);
#221=STYLED_ITEM('',(#467),#238);
#222=STYLED_ITEM('',(#467),#13);
#223=ADVANCED_FACE('',(#41),#201,.F.);
#224=ADVANCED_FACE('',(#42),#38,.F.);
#225=ADVANCED_FACE('',(#43),#39,.T.);
#226=ADVANCED_FACE('',(#44),#20,.T.);
#227=ADVANCED_FACE('',(#45),#16,.F.);
#228=ADVANCED_FACE('',(#46),#40,.F.);
#229=ADVANCED_FACE('',(#47),#17,.F.);
#230=ADVANCED_FACE('',(#48),#18,.T.);
#231=ADVANCED_FACE('',(#49),#202,.F.);
#232=ADVANCED_FACE('',(#50),#203,.T.);
#233=ADVANCED_FACE('',(#51),#204,.T.);
#234=ADVANCED_FACE('',(#52),#19,.F.);
#235=ADVANCED_FACE('',(#53),#205,.T.);
#236=ADVANCED_FACE('',(#54),#21,.F.);
#237=ADVANCED_FACE('',(#55,#14),#22,.T.);
#238=ADVANCED_FACE('',(#56,#15),#23,.F.);
#239=CLOSED_SHELL('',(#223,#224,#225,#226,#227,#228,#229,#230,#231,#232,
#233,#234,#235,#236,#237,#238));
#240=DERIVED_UNIT_ELEMENT(#243,1.);
#241=DERIVED_UNIT_ELEMENT(#453,-3.);
#242=DIMENSIONAL_EXPONENTS(0.,1.,0.,0.,0.,0.,0.);
#243=(
CONVERSION_BASED_UNIT('gram',#245)
MASS_UNIT()
NAMED_UNIT(#242)
);
#244=(
MASS_UNIT()
NAMED_UNIT(*)
SI_UNIT(.KILO.,.GRAM.)
);
#245=MASS_MEASURE_WITH_UNIT(MASS_MEASURE(0.001),#244);
#246=DERIVED_UNIT((#240,#241));
#247=MEASURE_REPRESENTATION_ITEM('density measure',
POSITIVE_RATIO_MEASURE(8.),#246);
#248=PROPERTY_DEFINITION_REPRESENTATION(#253,#250);
#249=PROPERTY_DEFINITION_REPRESENTATION(#254,#251);
#250=REPRESENTATION('material name',(#252),#450);
#251=REPRESENTATION('density',(#247),#450);
#252=DESCRIPTIVE_REPRESENTATION_ITEM('Edelstahl','Edelstahl');
#253=PROPERTY_DEFINITION('material property','material name',#460);
#254=PROPERTY_DEFINITION('material property','density of part',#460);
#255=DATE_TIME_ROLE('creation_date');
#256=APPLIED_DATE_AND_TIME_ASSIGNMENT(#257,#255,(#460));
#257=DATE_AND_TIME(#258,#259);
#258=CALENDAR_DATE(2023,8,9);
#259=LOCAL_TIME(0,0,0.,#260);
#260=COORDINATED_UNIVERSAL_TIME_OFFSET(0,0,.BEHIND.);
#261=AXIS2_PLACEMENT_3D('',#385,#300,#301);
#262=AXIS2_PLACEMENT_3D('',#386,#302,#303);
#263=AXIS2_PLACEMENT_3D('',#388,#304,#305);
#264=AXIS2_PLACEMENT_3D('',#390,#306,#307);
#265=AXIS2_PLACEMENT_3D('',#391,#308,#309);
#266=AXIS2_PLACEMENT_3D('',#392,#310,#311);
#267=AXIS2_PLACEMENT_3D('',#396,#313,#314);
#268=AXIS2_PLACEMENT_3D('',#397,#315,#316);
#269=AXIS2_PLACEMENT_3D('',#398,#317,#318);
#270=AXIS2_PLACEMENT_3D('',#400,#319,#320);
#271=AXIS2_PLACEMENT_3D('',#404,#322,#323);
#272=AXIS2_PLACEMENT_3D('',#405,#324,#325);
#273=AXIS2_PLACEMENT_3D('',#406,#326,#327);
#274=AXIS2_PLACEMENT_3D('',#407,#328,#329);
#275=AXIS2_PLACEMENT_3D('',#409,#330,#331);
#276=AXIS2_PLACEMENT_3D('',#412,#333,#334);
#277=AXIS2_PLACEMENT_3D('',#413,#335,#336);
#278=AXIS2_PLACEMENT_3D('',#415,#337,#338);
#279=AXIS2_PLACEMENT_3D('',#417,#340,#341);
#280=AXIS2_PLACEMENT_3D('',#420,#343,#344);
#281=AXIS2_PLACEMENT_3D('',#421,#345,#346);
#282=AXIS2_PLACEMENT_3D('',#423,#347,#348);
#283=AXIS2_PLACEMENT_3D('',#425,#350,#351);
#284=AXIS2_PLACEMENT_3D('',#427,#352,#353);
#285=AXIS2_PLACEMENT_3D('',#429,#354,#355);
#286=AXIS2_PLACEMENT_3D('',#430,#356,#357);
#287=AXIS2_PLACEMENT_3D('',#431,#358,#359);
#288=AXIS2_PLACEMENT_3D('',#433,#360,#361);
#289=AXIS2_PLACEMENT_3D('',#434,#362,#363);
#290=AXIS2_PLACEMENT_3D('',#435,#364,#365);
#291=AXIS2_PLACEMENT_3D('',#437,#366,#367);
#292=AXIS2_PLACEMENT_3D('',#438,#368,#369);
#293=AXIS2_PLACEMENT_3D('',#439,#370,#371);
#294=AXIS2_PLACEMENT_3D('',#441,#372,#373);
#295=AXIS2_PLACEMENT_3D('',#443,#375,#376);
#296=AXIS2_PLACEMENT_3D('',#444,#377,#378);
#297=AXIS2_PLACEMENT_3D('',#445,#379,#380);
#298=AXIS2_PLACEMENT_3D('',#446,#381,#382);
#299=AXIS2_PLACEMENT_3D('',#447,#383,#384);
#300=DIRECTION('axis',(0.,0.,1.));
#301=DIRECTION('refdir',(1.,0.,0.));
#302=DIRECTION('center_axis',(-1.,0.,0.));
#303=DIRECTION('ref_axis',(0.,0.479425538604204,0.877582561890373));
#304=DIRECTION('center_axis',(-1.,0.,0.));
#305=DIRECTION('ref_axis',(0.,1.,0.));
#306=DIRECTION('center_axis',(0.,0.877582561890372,-0.479425538604204));
#307=DIRECTION('ref_axis',(0.,-0.479425538604204,-0.877582561890372));
#308=DIRECTION('center_axis',(-1.,0.,0.));
#309=DIRECTION('ref_axis',(0.,1.,0.));
#310=DIRECTION('center_axis',(-1.,0.,0.));
#311=DIRECTION('ref_axis',(0.,0.479425538604204,0.877582561890373));
#312=DIRECTION('',(-1.,0.,0.));
#313=DIRECTION('center_axis',(-1.,0.,0.));
#314=DIRECTION('ref_axis',(0.,1.,0.));
#315=DIRECTION('center_axis',(-1.,0.,0.));
#316=DIRECTION('ref_axis',(0.,1.,0.));
#317=DIRECTION('center_axis',(-1.,0.,0.));
#318=DIRECTION('ref_axis',(0.,0.877582561890372,-0.479425538604203));
#319=DIRECTION('center_axis',(-1.,0.,0.));
#320=DIRECTION('ref_axis',(0.,1.,0.));
#321=DIRECTION('',(1.,0.,0.));
#322=DIRECTION('center_axis',(-1.,0.,0.));
#323=DIRECTION('ref_axis',(0.,1.,0.));
#324=DIRECTION('center_axis',(-1.,0.,0.));
#325=DIRECTION('ref_axis',(0.,1.,0.));
#326=DIRECTION('center_axis',(-1.,0.,0.));
#327=DIRECTION('ref_axis',(0.,1.,0.));
#328=DIRECTION('center_axis',(-1.,-1.11022302463E-15,-1.33226762955E-14));
#329=DIRECTION('ref_axis',(5.41291889239507E-15,0.877582561890373,-0.479425538604204));
#330=DIRECTION('center_axis',(-1.,-3.19899439133E-15,-1.18610175941E-14));
#331=DIRECTION('ref_axis',(-3.19899439133E-15,1.,0.));
#332=DIRECTION('',(-0.707106781186869,-0.620544580563468,0.339005049420884));
#333=DIRECTION('center_axis',(-1.,-5.86050625352E-15,-1.07275847401E-14));
#334=DIRECTION('ref_axis',(-5.86050625352E-15,1.,0.));
#335=DIRECTION('center_axis',(-1.,0.,0.));
#336=DIRECTION('ref_axis',(0.,0.877582561890372,-0.479425538604203));
#337=DIRECTION('center_axis',(-1.,0.,0.));
#338=DIRECTION('ref_axis',(0.,1.,0.));
#339=DIRECTION('',(-1.,0.,0.));
#340=DIRECTION('center_axis',(1.,-1.55431223448E-14,-3.5527136788E-14));
#341=DIRECTION('ref_axis',(-3.39224356252703E-15,0.877582561890373,-0.479425538604204));
#342=DIRECTION('',(0.707106781186867,-0.620544580563478,0.339005049420868));
#343=DIRECTION('center_axis',(-1.,3.5001272463E-15,1.29775378671E-14));
#344=DIRECTION('ref_axis',(3.5001272463E-15,1.,0.));
#345=DIRECTION('center_axis',(-1.,0.,0.));
#346=DIRECTION('ref_axis',(0.,0.877582561890372,-0.479425538604203));
#347=DIRECTION('center_axis',(-1.,0.,0.));
#348=DIRECTION('ref_axis',(0.,1.,0.));
#349=DIRECTION('',(0.754709580222559,0.575745963413015,-0.314531453330042));
#350=DIRECTION('center_axis',(-1.,0.,0.));
#351=DIRECTION('ref_axis',(0.,0.877582561890373,-0.479425538604204));
#352=DIRECTION('center_axis',(-1.,0.,0.));
#353=DIRECTION('ref_axis',(0.,1.,0.));
#354=DIRECTION('center_axis',(0.,-0.479425538604204,-0.877582561890372));
#355=DIRECTION('ref_axis',(0.,-0.877582561890372,0.479425538604204));
#356=DIRECTION('center_axis',(-1.,0.,0.));
#357=DIRECTION('ref_axis',(0.,1.,0.));
#358=DIRECTION('center_axis',(-1.,0.,0.));
#359=DIRECTION('ref_axis',(0.,0.877582561890373,-0.479425538604204));
#360=DIRECTION('center_axis',(-1.,0.,0.));
#361=DIRECTION('ref_axis',(0.,1.,0.));
#362=DIRECTION('center_axis',(0.,0.479425538604204,0.877582561890372));
#363=DIRECTION('ref_axis',(0.,-0.877582561890372,0.479425538604204));
#364=DIRECTION('center_axis',(-1.,0.,0.));
#365=DIRECTION('ref_axis',(0.,0.479425538604204,0.877582561890372));
#366=DIRECTION('center_axis',(0.,-0.877582561890372,0.479425538604204));
#367=DIRECTION('ref_axis',(0.,-0.479425538604204,-0.877582561890372));
#368=DIRECTION('center_axis',(-1.,0.,0.));
#369=DIRECTION('ref_axis',(0.,1.,0.));
#370=DIRECTION('center_axis',(-1.,0.,0.));
#371=DIRECTION('ref_axis',(0.,0.877582561890373,-0.479425538604203));
#372=DIRECTION('center_axis',(-1.,0.,0.));
#373=DIRECTION('ref_axis',(0.,1.,0.));
#374=DIRECTION('',(-0.754709580222559,-0.575745963413015,0.314531453330042));
#375=DIRECTION('center_axis',(-1.,0.,0.));
#376=DIRECTION('ref_axis',(0.,0.877582561890373,-0.479425538604203));
#377=DIRECTION('center_axis',(0.,0.479425538604204,0.877582561890372));
#378=DIRECTION('ref_axis',(0.,-0.877582561890372,0.479425538604204));
#379=DIRECTION('center_axis',(-1.,0.,0.));
#380=DIRECTION('ref_axis',(0.,1.,0.));
#381=DIRECTION('center_axis',(-1.,0.,0.));
#382=DIRECTION('ref_axis',(0.,1.,0.));
#383=DIRECTION('center_axis',(-1.,0.,0.));
#384=DIRECTION('ref_axis',(0.,1.,0.));
#385=CARTESIAN_POINT('',(0.,0.,0.));
#386=CARTESIAN_POINT('Origin',(-2.5,0.,0.));
#387=CARTESIAN_POINT('',(-1.5,-6.30444583265,-11.5402106889));
#388=CARTESIAN_POINT('Origin',(-1.5,0.,0.));
#389=CARTESIAN_POINT('',(-2.5,-6.78387137125,-12.4177932507));
#390=CARTESIAN_POINT('Origin',(-2.5,-6.30444583264528,-11.5402106888584));
#391=CARTESIAN_POINT('Origin',(-2.5,0.,0.));
#392=CARTESIAN_POINT('Origin',(-0.750000000699997,0.,0.));
#393=CARTESIAN_POINT('',(-18.52688616711,-6.78387137124948,-12.4177932507488));
#394=CARTESIAN_POINT('',(-0.750000000699997,-6.78387137124948,-12.4177932507488));
#395=CARTESIAN_POINT('',(-18.52688616711,-12.4177932507488,6.78387137124948));
#396=CARTESIAN_POINT('Origin',(-18.52688616711,0.,0.));
#397=CARTESIAN_POINT('Origin',(-18.52688616711,0.,0.));
#398=CARTESIAN_POINT('Origin',(-2.25,0.,0.));
#399=CARTESIAN_POINT('',(-18.59979600097,-13.7341670936,7.50300967916));
#400=CARTESIAN_POINT('Origin',(-18.59979600097,0.,0.));
#401=CARTESIAN_POINT('',(-2.5,-13.7341670936,7.50300967916));
#402=CARTESIAN_POINT('',(-2.25,-13.7341670935843,7.50300967915579));
#403=CARTESIAN_POINT('',(-2.5,-7.50300967915579,-13.7341670935843));
#404=CARTESIAN_POINT('Origin',(-2.5,0.,0.));
#405=CARTESIAN_POINT('Origin',(-2.5,0.,0.));
#406=CARTESIAN_POINT('Origin',(-1.5,15.65,0.));
#407=CARTESIAN_POINT('Origin',(-12.2000000000009,1.4432899320169E-14,1.76747505520488E-13));
#408=CARTESIAN_POINT('',(-25.6,-12.6371888912,6.9037277559));
#409=CARTESIAN_POINT('Origin',(-25.6,-1.83015730011E-28,1.08547260558E-27));
#410=CARTESIAN_POINT('',(-26.,-12.9882220149,7.09549779022));
#411=CARTESIAN_POINT('',(-12.2000000000009,-0.877582561890358,0.47942553860438));
#412=CARTESIAN_POINT('Origin',(-26.0000000000001,-8.881784197E-16,-7.1054273576E-15));
#413=CARTESIAN_POINT('Origin',(-2.25,0.,0.));
#414=CARTESIAN_POINT('',(-24.9,-12.6371888912,6.9037277559));
#415=CARTESIAN_POINT('Origin',(-24.9,0.,0.));
#416=CARTESIAN_POINT('',(-2.25,-12.6371888912214,6.90372775590053));
#417=CARTESIAN_POINT('Origin',(-38.2999999999991,2.10054196259186E-13,4.83169060316968E-13));
#418=CARTESIAN_POINT('',(-24.5,-12.9882217838,7.09549821338));
#419=CARTESIAN_POINT('',(-38.2999999999991,-0.877582561890162,0.479425538604687));
#420=CARTESIAN_POINT('Origin',(-24.5,-8.881784197E-16,-5.3290705182E-15));
#421=CARTESIAN_POINT('Origin',(-18.59979600097,0.,0.));
#422=CARTESIAN_POINT('',(-21.0318229130462,-15.5894896099976,8.51657698933558));
#423=CARTESIAN_POINT('Origin',(-21.03182291303,0.,0.));
#424=CARTESIAN_POINT('',(-18.59979600097,-13.7341670935843,7.50300967915579));
#425=CARTESIAN_POINT('Origin',(-23.,0.,0.));
#426=CARTESIAN_POINT('',(-22.01591145651,-14.5960096596,7.97383641885));
#427=CARTESIAN_POINT('Origin',(-22.01591145651,0.,0.));
#428=CARTESIAN_POINT('',(-24.5,-13.6025297093,7.43109584837));
#429=CARTESIAN_POINT('Origin',(-23.,-13.6025297093008,7.43109584836516));
#430=CARTESIAN_POINT('Origin',(-24.5,0.,0.));
#431=CARTESIAN_POINT('Origin',(-23.,0.,0.));
#432=CARTESIAN_POINT('',(-26.,-13.6025297093008,7.43109584836516));
#433=CARTESIAN_POINT('Origin',(-26.,0.,0.));
#434=CARTESIAN_POINT('Origin',(-23.,-13.6025297093008,7.43109584836516));
#435=CARTESIAN_POINT('Origin',(-2.5,0.,0.));
#436=CARTESIAN_POINT('',(0.,-6.30444583264528,-11.5402106888584));
#437=CARTESIAN_POINT('Origin',(-2.5,-6.30444583264528,-11.5402106888584));
#438=CARTESIAN_POINT('Origin',(0.,0.,0.));
#439=CARTESIAN_POINT('Origin',(-19.94962764835,0.,0.));
#440=CARTESIAN_POINT('',(-19.94962764835,-13.0197019076122,7.11269556915252));
#441=CARTESIAN_POINT('Origin',(-19.94962764835,0.,0.));
#442=CARTESIAN_POINT('',(-19.94962764835,-13.0197019076122,7.11269556915253));
#443=CARTESIAN_POINT('Origin',(-17.98145056138,0.,0.));
#444=CARTESIAN_POINT('Origin',(-17.98145056138,-15.0066618083254,8.19817671013188));
#445=CARTESIAN_POINT('Origin',(0.,0.,13.15));
#446=CARTESIAN_POINT('Origin',(-26.,14.4,0.));
#447=CARTESIAN_POINT('Origin',(-24.5,14.4,0.));
#448=UNCERTAINTY_MEASURE_WITH_UNIT(LENGTH_MEASURE(0.01),#452,
'DISTANCE_ACCURACY_VALUE',
'Maximum model space distance between geometric entities at asserted c
onnectivities');
#449=UNCERTAINTY_MEASURE_WITH_UNIT(LENGTH_MEASURE(0.01),#452,
'DISTANCE_ACCURACY_VALUE',
'Maximum model space distance between geometric entities at asserted c
onnectivities');
#450=(
GEOMETRIC_REPRESENTATION_CONTEXT(3)
GLOBAL_UNCERTAINTY_ASSIGNED_CONTEXT((#448))
GLOBAL_UNIT_ASSIGNED_CONTEXT((#452,#454,#455))
REPRESENTATION_CONTEXT('','3D')
);
#451=(
GEOMETRIC_REPRESENTATION_CONTEXT(3)
GLOBAL_UNCERTAINTY_ASSIGNED_CONTEXT((#449))
GLOBAL_UNIT_ASSIGNED_CONTEXT((#452,#454,#455))
REPRESENTATION_CONTEXT('','3D')
);
#452=(
LENGTH_UNIT()
NAMED_UNIT(*)
SI_UNIT(.MILLI.,.METRE.)
);
#453=(
LENGTH_UNIT()
NAMED_UNIT(*)
SI_UNIT(.CENTI.,.METRE.)
);
#454=(
NAMED_UNIT(*)
PLANE_ANGLE_UNIT()
SI_UNIT($,.RADIAN.)
);
#455=(
NAMED_UNIT(*)
SI_UNIT($,.STERADIAN.)
SOLID_ANGLE_UNIT()
);
#456=SHAPE_DEFINITION_REPRESENTATION(#457,#458);
#457=PRODUCT_DEFINITION_SHAPE('',$,#460);
#458=SHAPE_REPRESENTATION('',(#261),#450);
#459=PRODUCT_DEFINITION_CONTEXT('part definition',#464,'design');
#460=PRODUCT_DEFINITION('tmp706.tmp','tmp706.tmp',#461,#459);
#461=PRODUCT_DEFINITION_FORMATION('',$,#466);
#462=PRODUCT_RELATED_PRODUCT_CATEGORY('tmp706.tmp','tmp706.tmp',(#466));
#463=APPLICATION_PROTOCOL_DEFINITION('international standard',
'automotive_design',2009,#464);
#464=APPLICATION_CONTEXT(
'Core Data for Automotive Mechanical Design Process');
#465=PRODUCT_CONTEXT('part definition',#464,'mechanical');
#466=PRODUCT('tmp706.tmp','tmp706.tmp',$,(#465));
#467=PRESENTATION_STYLE_ASSIGNMENT((#468));
#468=SURFACE_STYLE_USAGE(.BOTH.,#471);
#469=SURFACE_STYLE_RENDERING_WITH_PROPERTIES($,#475,(#470));
#470=SURFACE_STYLE_TRANSPARENT(0.);
#471=SURFACE_SIDE_STYLE('',(#472,#469));
#472=SURFACE_STYLE_FILL_AREA(#473);
#473=FILL_AREA_STYLE('',(#474));
#474=FILL_AREA_STYLE_COLOUR('',#475);
#475=COLOUR_RGB('',0.745098039215686,0.737254901960784,0.729411764705882);
ENDSEC;
END-ISO-10303-21;
