ISO-10303-21;
HEADER;
/****************************************************************
 * Generated by software with PDE/Lib inside                    *
 * PDElib Version v51a, created Thu 12/14/2006                  *
 * International Technegroup Inc. (www.iti-oh.com)              *
 ****************************************************************/
FILE_DESCRIPTION((''),'2;1');
FILE_NAME('T:\\Arbeitspl\S\dtze\\Aushilfe\\KPeters\\3D\\Steps 08_10\\47220\\47220040X.stp','2010-08-17T10:31:00',('thilbrands'),(''),'Autodesk Inventor 2008','Autodesk Inventor 2008','');
FILE_SCHEMA(('AUTOMOTIVE_DESIGN { 1 0 10303 214 1 1 1 1 }'));
ENDSEC;
DATA;
#5=APPLICATION_CONTEXT('automotive design');
#6=APPLICATION_PROTOCOL_DEFINITION('International Standard','automotive_design',2001,#5);
#7=PRODUCT_CONTEXT('',#5,'mechanical');
#8=PRODUCT('472200101','472200101',$,(#7));
#9=PRODUCT_RELATED_PRODUCT_CATEGORY('part',$,(#8));
#10=PRODUCT_DEFINITION_FORMATION('',$,#8);
#11=PRODUCT_DEFINITION_CONTEXT('part definition',#5,'design');
#12=PRODUCT_DEFINITION('',$,#10,#11);
#18=(NAMED_UNIT(*)PLANE_ANGLE_UNIT()SI_UNIT($,.RADIAN.));
#19=DIMENSIONAL_EXPONENTS(0.0,0.0,0.0,0.0,0.0,0.0,0.0);
#20=PLANE_ANGLE_MEASURE_WITH_UNIT(PLANE_ANGLE_MEASURE(0.017453292500000),#18);
#24=(CONVERSION_BASED_UNIT('DEGREE',#20)NAMED_UNIT(#19)PLANE_ANGLE_UNIT());
#28=(NAMED_UNIT(*)SI_UNIT($,.STERADIAN.)SOLID_ANGLE_UNIT());
#32=(LENGTH_UNIT()NAMED_UNIT(*)SI_UNIT(.MILLI.,.METRE.));
#34=UNCERTAINTY_MEASURE_WITH_UNIT(LENGTH_MEASURE(0.010000000000000),#32,'DISTANCE_ACCURACY_VALUE','');
#36=(GEOMETRIC_REPRESENTATION_CONTEXT(3)GLOBAL_UNCERTAINTY_ASSIGNED_CONTEXT((#34))GLOBAL_UNIT_ASSIGNED_CONTEXT((#24,#28,#32))REPRESENTATION_CONTEXT('None','None'));
#37=AXIS2_PLACEMENT_3D('',#38,#39,#40);
#38=CARTESIAN_POINT('',(0.0,0.0,0.0));
#39=DIRECTION('',(0.0,0.0,1.0));
#40=DIRECTION('',(1.0,0.0,0.0));
#41=SHAPE_REPRESENTATION('',(#37),#36);
#42=PRODUCT_DEFINITION_SHAPE('','',#12);
#43=SHAPE_DEFINITION_REPRESENTATION(#42,#41);
#49=(NAMED_UNIT(*)PLANE_ANGLE_UNIT()SI_UNIT($,.RADIAN.));
#50=DIMENSIONAL_EXPONENTS(0.0,0.0,0.0,0.0,0.0,0.0,0.0);
#51=PLANE_ANGLE_MEASURE_WITH_UNIT(PLANE_ANGLE_MEASURE(0.017453292500000),#49);
#55=(CONVERSION_BASED_UNIT('DEGREE',#51)NAMED_UNIT(#50)PLANE_ANGLE_UNIT());
#59=(NAMED_UNIT(*)SI_UNIT($,.STERADIAN.)SOLID_ANGLE_UNIT());
#63=(LENGTH_UNIT()NAMED_UNIT(*)SI_UNIT(.MILLI.,.METRE.));
#65=UNCERTAINTY_MEASURE_WITH_UNIT(LENGTH_MEASURE(0.000001000000000),#63,'DISTANCE_ACCURACY_VALUE','');
#67=(GEOMETRIC_REPRESENTATION_CONTEXT(3)GLOBAL_UNCERTAINTY_ASSIGNED_CONTEXT((#65))GLOBAL_UNIT_ASSIGNED_CONTEXT((#55,#59,#63))REPRESENTATION_CONTEXT('','3D'));
#68=CARTESIAN_POINT('',(0.0,0.0,-120.0));
#69=DIRECTION('',(0.0,0.0,1.0));
#70=DIRECTION('',(1.0,0.0,0.0));
#71=AXIS2_PLACEMENT_3D('',#68,#69,#70);
#72=CYLINDRICAL_SURFACE('',#71,19.0);
#73=CARTESIAN_POINT('',(-1.163376E-015,19.0,-5.207965E-015));
#74=VERTEX_POINT('',#73);
#75=CARTESIAN_POINT('',(-1.163376E-015,-19.0,-5.207965E-015));
#76=VERTEX_POINT('',#75);
#77=CARTESIAN_POINT('',(-1.163376E-015,19.0,-5.207965E-015));
#78=CARTESIAN_POINT('',(-1.178389E-015,19.0,-0.101420869168524));
#79=CARTESIAN_POINT('',(0.000128577500082,19.000000001305153,-0.202841611357161));
#80=CARTESIAN_POINT('',(0.000385731096039,18.999999996084515,-0.304262154517448));
#81=CARTESIAN_POINT('',(0.013197568391942,18.999999735983305,-5.357208066896409));
#82=CARTESIAN_POINT('',(0.344709641858700,19.005127292512341,-10.173477381190771));
#83=CARTESIAN_POINT('',(0.904153818363636,18.978474803648957,-14.730815198327532));
#84=CARTESIAN_POINT('',(1.532094968605231,18.948559049376151,-19.846142287458697));
#85=CARTESIAN_POINT('',(2.446926421395050,18.873419139054501,-24.635412699450356));
#86=CARTESIAN_POINT('',(3.520438574510518,18.671007263752493,-29.067254047854703));
#87=CARTESIAN_POINT('',(4.350248105244012,18.514545780972075,-32.493003983644336));
#88=CARTESIAN_POINT('',(5.272080273328360,18.282867476858470,-35.698308539242056));
#89=CARTESIAN_POINT('',(6.243583359703729,17.944850705158586,-38.709947123819425));
#90=CARTESIAN_POINT('',(7.313862538676639,17.572466594425826,-42.027789462015747));
#91=CARTESIAN_POINT('',(8.443346895727572,17.071115826315488,-45.104472075316494));
#92=CARTESIAN_POINT('',(9.573894669932635,16.411597754302765,-47.934692246679056));
#93=CARTESIAN_POINT('',(10.206718431605525,16.042432720551044,-49.518907099044313));
#94=CARTESIAN_POINT('',(10.840004520170709,15.623941684014708,-51.025895850798278));
#95=CARTESIAN_POINT('',(11.464485441624884,15.151421502907612,-52.454518451606944));
#96=CARTESIAN_POINT('',(11.933298778589593,14.796688867726150,-53.527020918437643));
#97=CARTESIAN_POINT('',(12.399379051508260,14.409153084131633,-54.559918753635849));
#98=CARTESIAN_POINT('',(12.846510347028033,13.998827518892492,-55.526232388725333));
#99=CARTESIAN_POINT('',(14.119855298655184,12.830298292117059,-58.278109972018463));
#100=CARTESIAN_POINT('',(15.252160274317539,11.467574651721542,-60.528602893601708));
#101=CARTESIAN_POINT('',(16.180133508574734,9.960084319155996,-62.315584263151521));
#102=CARTESIAN_POINT('',(16.801618559619993,8.950483318072523,-63.512366849839566));
#103=CARTESIAN_POINT('',(17.329206568321581,7.880488062124126,-64.495057946084358));
#104=CARTESIAN_POINT('',(17.751557599924929,6.773640289869802,-65.271539157445829));
#105=CARTESIAN_POINT('',(17.962022995905098,6.222077402020501,-65.658474226598997));
#106=CARTESIAN_POINT('',(18.146685176865098,5.660937391298762,-65.994594268683926));
#107=CARTESIAN_POINT('',(18.304880930420492,5.092281818902825,-66.281003487431605));
#108=CARTESIAN_POINT('',(18.438819155589069,4.610823142628916,-66.523495093993915));
#109=CARTESIAN_POINT('',(18.556089853009173,4.116007559966734,-66.734495136074983));
#110=CARTESIAN_POINT('',(18.654701115106064,3.605846129005029,-66.911346329493753));
#111=CARTESIAN_POINT('',(18.768591504741302,3.016638741191566,-67.115599382315750));
#112=CARTESIAN_POINT('',(18.857197986309899,2.408410584692537,-67.273609496841487));
#113=CARTESIAN_POINT('',(18.916135572488038,1.783203578746049,-67.378576249406834));
#114=CARTESIAN_POINT('',(18.965529276356555,1.259237605404294,-67.466545523828444));
#115=CARTESIAN_POINT('',(18.993502931708765,0.726400147293234,-67.516226186566854));
#116=CARTESIAN_POINT('',(18.998983730067724,0.196512657663216,-67.525966081325009));
#117=CARTESIAN_POINT('',(19.005002606978969,-0.385396649705812,-67.536662192336280));
#118=CARTESIAN_POINT('',(18.984261835859314,-0.967218218429208,-67.499851323492550));
#119=CARTESIAN_POINT('',(18.936963694061212,-1.546417165517598,-67.415660543932162));
#120=CARTESIAN_POINT('',(18.891448325456665,-2.103784803439331,-67.334643103941545));
#121=CARTESIAN_POINT('',(18.821994553371759,-2.649800751281064,-67.210896528021607));
#122=CARTESIAN_POINT('',(18.732038900307700,-3.179735623815149,-67.049901834930736));
#123=CARTESIAN_POINT('',(18.614342743490422,-3.873091691346537,-66.839259635142824));
#124=CARTESIAN_POINT('',(18.461371047159204,-4.540805475542100,-66.564530073515769));
#125=CARTESIAN_POINT('',(18.280300596364732,-5.179827227480393,-66.236486494435496));
#126=CARTESIAN_POINT('',(18.150547889586587,-5.637741821718748,-66.001414774339267));
#127=CARTESIAN_POINT('',(18.004157975539723,-6.088984909396096,-65.734980043570744));
#128=CARTESIAN_POINT('',(17.840853750111588,-6.534824976013458,-65.435501832161279));
#129=CARTESIAN_POINT('',(17.554931716173712,-7.315426324962211,-64.911158882052177));
#130=CARTESIAN_POINT('',(17.217747272925372,-8.077177768831326,-64.286778448295152));
#131=CARTESIAN_POINT('',(16.831958267475130,-8.813919722914180,-63.558398219228536));
#132=CARTESIAN_POINT('',(16.638804526973029,-9.182785766802214,-63.193718656658319));
#133=CARTESIAN_POINT('',(16.433482878366110,-9.545370553979412,-62.802947087295451));
#134=CARTESIAN_POINT('',(16.216454667257999,-9.900838248591189,-62.385488057255131));
#135=CARTESIAN_POINT('',(16.040669314920201,-10.188754799269056,-62.047360666776498));
#136=CARTESIAN_POINT('',(15.858985299739006,-10.468914597301881,-61.695101393491406));
#137=CARTESIAN_POINT('',(15.675358652383853,-10.736998235965894,-61.335846587229284));
#138=CARTESIAN_POINT('',(14.877632031990768,-11.901630156955564,-59.775141065523783));
#139=CARTESIAN_POINT('',(14.027647704027427,-12.866858073178188,-58.049692132447142));
#140=CARTESIAN_POINT('',(13.197726593569286,-13.668211761653172,-56.280141990373743));
#141=CARTESIAN_POINT('',(12.931179914250453,-13.925583410513861,-55.711813617575203));
#142=CARTESIAN_POINT('',(12.667741888279220,-14.165251618898559,-55.141710585464679));
#143=CARTESIAN_POINT('',(12.398732881150810,-14.396924079186837,-54.549939426879249));
#144=CARTESIAN_POINT('',(11.000206435718853,-15.601344949142245,-51.473434205882782));
#145=CARTESIAN_POINT('',(9.502420352350942,-16.533298759692244,-47.925207799993437));
#146=CARTESIAN_POINT('',(8.028118069401025,-17.220607430162175,-43.894741560422105));
#147=CARTESIAN_POINT('',(7.525687593744110,-17.454836750852348,-42.521190767422517));
#148=CARTESIAN_POINT('',(7.024665427213074,-17.661253271012306,-41.086116696239110));
#149=CARTESIAN_POINT('',(6.540625934772364,-17.838727880131600,-39.620073502523539));
#150=CARTESIAN_POINT('',(4.652140377317956,-18.531147076025423,-33.900289391570411));
#151=CARTESIAN_POINT('',(2.992173604030574,-18.800092872341096,-27.637801912753019));
#152=CARTESIAN_POINT('',(1.815806637593966,-18.913033766555490,-20.875669882007468));
#153=CARTESIAN_POINT('',(1.618341225643735,-18.931992068546602,-19.740575795544121));
#154=CARTESIAN_POINT('',(1.435907069190285,-18.946395267329255,-18.598973376703633));
#155=CARTESIAN_POINT('',(1.269777845233371,-18.957522628860406,-17.456995241335573));
#156=CARTESIAN_POINT('',(0.637775140116161,-18.999854269380972,-13.112586391725205));
#157=CARTESIAN_POINT('',(0.236841038260852,-18.999188604832156,-8.734825874867479));
#158=CARTESIAN_POINT('',(0.077904275052031,-18.999840286800531,-4.324005783128277));
#159=CARTESIAN_POINT('',(0.029731812089410,-19.000037806397955,-2.987121457474029));
#160=CARTESIAN_POINT('',(0.003790782212201,-18.999999926956420,-1.647202986975271));
#161=CARTESIAN_POINT('',(0.000385731008541,-18.999999996084515,-0.304262154517661));
#162=CARTESIAN_POINT('',(0.000128577500082,-19.000000001305153,-0.202841611357161));
#163=CARTESIAN_POINT('',(-1.178389E-015,-19.0,-0.101420869168524));
#164=CARTESIAN_POINT('',(-1.163376E-015,-19.0,-5.207965E-015));
#165=B_SPLINE_CURVE_WITH_KNOTS('',3,(#77,#78,#79,#80,#81,#82,#83,#84,#85,#86,#87,#88,#89,#90,#91,#92,#93,#94,#95,#96,#97,#98,#99,#100,#101,#102,#103,#104,#105,#106,#107,#108,#109,#110,#111,#112,#113,#114,#115,#116,#117,#118,#119,#120,#121,#122,#123,#124,#125,#126,#127,#128,#129,#130,#131,#132,#133,#134,#135,#136,#137,#138,#139,#140,#141,#142,#143,#144,#145,#146,#147,#148,#149,#150,#151,#152,#153,#154,#155,#156,#157,#158,#159,#160,#161,#162,#163,#164),.UNSPECIFIED.,.F.,.U.,(4,3,3,3,3,3,3,3,3,3,3,3,3,3,3,3,3,3,3,3,3,3,3,3,3,3,3,3,3,4),(-17.949719237476970,-17.930035758845428,-16.949370996130352,-15.848636043542509,-14.997783678417374,-14.060422198516289,-13.535734404428714,-13.141838246579642,-12.020096849616145,-11.268840796515136,-10.894475894177463,-10.577515612642737,-10.211444545350089,-9.904652104987282,-9.567740251110100,-9.243527361692159,-8.819333775459818,-8.515362223116084,-7.983152084171328,-7.716689386639684,-7.500863808336655,-6.563255832294574,-6.262123243464646,-4.696592432598484,-4.163072001235387,-2.081536000617693,-1.732128566051349,-0.402883544770410,0.0,0.030426260750556),.UNSPECIFIED.);
#166=EDGE_CURVE('',#74,#76,#165,.T.);
#167=ORIENTED_EDGE('',*,*,#166,.F.);
#168=CARTESIAN_POINT('',(0.0,0.0,-2.300976E-015));
#169=DIRECTION('',(0.0,0.0,-1.0));
#170=DIRECTION('',(-1.0,0.0,0.0));
#171=AXIS2_PLACEMENT_3D('',#168,#169,#170);
#172=CIRCLE('',#171,19.0);
#173=EDGE_CURVE('',#76,#74,#172,.T.);
#174=ORIENTED_EDGE('',*,*,#173,.F.);
#175=EDGE_LOOP('',(#167,#174));
#176=FACE_OUTER_BOUND('',#175,.T.);
#177=CARTESIAN_POINT('',(-19.0,2.326829E-015,-120.0));
#178=VERTEX_POINT('',#177);
#179=CARTESIAN_POINT('',(0.0,0.0,-120.0));
#180=DIRECTION('',(0.0,0.0,1.0));
#181=DIRECTION('',(1.0,0.0,0.0));
#182=AXIS2_PLACEMENT_3D('',#179,#180,#181);
#183=CIRCLE('',#182,19.0);
#184=EDGE_CURVE('',#178,#178,#183,.T.);
#185=ORIENTED_EDGE('',*,*,#184,.F.);
#186=EDGE_LOOP('',(#185));
#187=FACE_BOUND('',#186,.T.);
#188=ADVANCED_FACE('',(#176,#187),#72,.F.);
#189=CARTESIAN_POINT('',(60.0,0.0,-8.881784E-015));
#190=DIRECTION('',(0.0,1.0,0.0));
#191=DIRECTION('',(0.0,0.0,1.0));
#192=AXIS2_PLACEMENT_3D('',#189,#190,#191);
#193=TOROIDAL_SURFACE('',#192,60.0,19.0);
#194=CARTESIAN_POINT('',(59.999999999999993,2.326829E-015,-41.000000000000007));
#195=VERTEX_POINT('',#194);
#196=CARTESIAN_POINT('',(59.999999999999986,0.0,-60.000000000000007));
#197=DIRECTION('',(-1.0,0.0,0.0));
#198=DIRECTION('',(0.0,0.0,-1.0));
#199=AXIS2_PLACEMENT_3D('',#196,#197,#198);
#200=CIRCLE('',#199,19.0);
#201=EDGE_CURVE('',#195,#195,#200,.T.);
#202=ORIENTED_EDGE('',*,*,#201,.F.);
#203=EDGE_LOOP('',(#202));
#204=FACE_OUTER_BOUND('',#203,.T.);
#205=ORIENTED_EDGE('',*,*,#166,.T.);
#206=CARTESIAN_POINT('',(0.0,0.0,-2.300976E-015));
#207=DIRECTION('',(0.0,0.0,-1.0));
#208=DIRECTION('',(-1.0,0.0,0.0));
#209=AXIS2_PLACEMENT_3D('',#206,#207,#208);
#210=CIRCLE('',#209,19.0);
#211=EDGE_CURVE('',#74,#76,#210,.T.);
#212=ORIENTED_EDGE('',*,*,#211,.F.);
#213=EDGE_LOOP('',(#205,#212));
#214=FACE_BOUND('',#213,.T.);
#215=ADVANCED_FACE('',(#204,#214),#193,.F.);
#216=CARTESIAN_POINT('',(0.0,0.0,-120.0));
#217=DIRECTION('',(0.0,0.0,1.0));
#218=DIRECTION('',(-1.0,0.0,0.0));
#219=AXIS2_PLACEMENT_3D('',#216,#217,#218);
#220=CYLINDRICAL_SURFACE('',#219,20.500000000000004);
#221=CARTESIAN_POINT('',(20.500000000000004,2.510526E-015,-120.0));
#222=VERTEX_POINT('',#221);
#223=CARTESIAN_POINT('',(0.0,0.0,-120.0));
#224=DIRECTION('',(0.0,0.0,-1.0));
#225=DIRECTION('',(-1.0,0.0,0.0));
#226=AXIS2_PLACEMENT_3D('',#223,#224,#225);
#227=CIRCLE('',#226,20.500000000000004);
#228=EDGE_CURVE('',#222,#222,#227,.T.);
#229=ORIENTED_EDGE('',*,*,#228,.F.);
#230=EDGE_LOOP('',(#229));
#231=FACE_OUTER_BOUND('',#230,.T.);
#232=CARTESIAN_POINT('',(-1.255222E-015,-20.500000000000004,-5.207965E-015));
#233=VERTEX_POINT('',#232);
#234=CARTESIAN_POINT('',(-1.255222E-015,20.500000000000004,-5.207965E-015));
#235=VERTEX_POINT('',#234);
#236=CARTESIAN_POINT('',(-1.255222E-015,-20.500000000000004,-5.207965E-015));
#237=CARTESIAN_POINT('',(-1.270539E-015,-20.500000000000004,-0.103473267792061));
#238=CARTESIAN_POINT('',(0.000133834127844,-20.500000001310585,-0.206946425701752));
#239=CARTESIAN_POINT('',(0.000401500745903,-20.499999996068230,-0.310419347290678));
#240=CARTESIAN_POINT('',(0.010585282947690,-20.499999796614755,-4.247203488980607));
#241=CARTESIAN_POINT('',(0.214427035149179,-20.502579135568023,-8.156429576118665));
#242=CARTESIAN_POINT('',(0.603783609679298,-20.491106494103306,-12.037776635369479));
#243=CARTESIAN_POINT('',(0.851678602180096,-20.483802108982051,-14.508947184645887));
#244=CARTESIAN_POINT('',(1.174775002939001,-20.470168681078281,-16.968833610251075));
#245=CARTESIAN_POINT('',(1.570975509953426,-20.439717120036828,-19.417366515282779));
#246=CARTESIAN_POINT('',(1.839670267445352,-20.419065518980233,-21.077909456245099));
#247=CARTESIAN_POINT('',(2.143588952966209,-20.390336905645341,-22.740044350051029));
#248=CARTESIAN_POINT('',(2.474041300088560,-20.350162644201546,-24.367394444651943));
#249=CARTESIAN_POINT('',(3.806806235809144,-20.188133693773374,-30.930746659011131));
#250=CARTESIAN_POINT('',(5.578921064190132,-19.839936767112114,-37.011234555190292));
#251=CARTESIAN_POINT('',(7.550552336845624,-19.058834156594028,-42.569150342037020));
#252=CARTESIAN_POINT('',(7.898745121081004,-18.920890365327466,-43.550685885324214));
#253=CARTESIAN_POINT('',(8.254014472297493,-18.769049335059236,-44.518066835340008));
#254=CARTESIAN_POINT('',(8.612399440229520,-18.603133496320837,-45.464006264902409));
#255=CARTESIAN_POINT('',(10.250581127253019,-17.844730346275941,-49.787905951555807));
#256=CARTESIAN_POINT('',(11.910552224356261,-16.808871352530218,-53.563782405832498));
#257=CARTESIAN_POINT('',(13.448007209543460,-15.472591964246561,-56.811281716666386));
#258=CARTESIAN_POINT('',(13.685111195991524,-15.266512974602609,-57.312106157059546));
#259=CARTESIAN_POINT('',(13.919386863105725,-15.053325103593439,-57.800338354993244));
#260=CARTESIAN_POINT('',(14.150390603702668,-14.832951350376746,-58.276013460845462));
#261=CARTESIAN_POINT('',(14.377515936370713,-14.616277534267512,-58.743702279993627));
#262=CARTESIAN_POINT('',(14.604764806359364,-14.389585190464011,-59.206032127427108));
#263=CARTESIAN_POINT('',(14.832986691242935,-14.150353558035576,-59.665038388475921));
#264=CARTESIAN_POINT('',(15.505294015674469,-13.445613174354131,-61.017201750988171));
#265=CARTESIAN_POINT('',(16.180795640118049,-12.637499258705580,-62.328758688173636));
#266=CARTESIAN_POINT('',(16.825724778518712,-11.710891754155256,-63.546628131195853));
#267=CARTESIAN_POINT('',(17.067305871003079,-11.363798034977673,-64.002824344129024));
#268=CARTESIAN_POINT('',(17.304548204246846,-11.000061227682393,-64.445899949965607));
#269=CARTESIAN_POINT('',(17.535465549394573,-10.618730996027550,-64.873043183241364));
#270=CARTESIAN_POINT('',(17.729560801933733,-10.298207704169537,-65.232074132952008));
#271=CARTESIAN_POINT('',(17.916042384735050,-9.970302972270426,-65.574033816901107));
#272=CARTESIAN_POINT('',(18.092910258872926,-9.638288144913020,-65.896118718248530));
#273=CARTESIAN_POINT('',(18.678168258672727,-8.539646943336781,-66.961901670902563));
#274=CARTESIAN_POINT('',(19.163644125486979,-7.386480437035948,-67.821169993818799));
#275=CARTESIAN_POINT('',(19.540687226790446,-6.197704631938255,-68.481858432943440));
#276=CARTESIAN_POINT('',(19.726845625699099,-5.610767489279292,-68.808061727950573));
#277=CARTESIAN_POINT('',(19.886524576027515,-5.017477531611095,-69.085606221154322));
#278=CARTESIAN_POINT('',(20.022109231292710,-4.400584271455697,-69.320316037293509));
#279=CARTESIAN_POINT('',(20.213351941390108,-3.530453808077042,-69.651375191717179));
#280=CARTESIAN_POINT('',(20.353703991266816,-2.621216676171887,-69.892106613924909));
#281=CARTESIAN_POINT('',(20.431139179885925,-1.678854315338420,-70.024805627524756));
#282=CARTESIAN_POINT('',(20.479069532256911,-1.095556710962799,-70.106942839231024));
#283=CARTESIAN_POINT('',(20.502067119407414,-0.508299318925335,-70.146248103500668));
#284=CARTESIAN_POINT('',(20.499853639057378,0.077464683733867,-70.142461272568511));
#285=CARTESIAN_POINT('',(20.497526569587524,0.693288324140584,-70.138480112921187));
#286=CARTESIAN_POINT('',(20.467281469590120,1.310146831347730,-70.086783764392294));
#287=CARTESIAN_POINT('',(20.409822450975085,1.920715366646870,-69.988266075350239));
#288=CARTESIAN_POINT('',(20.311454854267613,2.965984862893754,-69.819607637774595));
#289=CARTESIAN_POINT('',(20.136174155574484,3.967752853723936,-69.518689143454978));
#290=CARTESIAN_POINT('',(19.901282803895452,4.918225570200622,-69.110837593932473));
#291=CARTESIAN_POINT('',(19.745876819350535,5.547065871179341,-68.840999768279687));
#292=CARTESIAN_POINT('',(19.565589874545829,6.151434008500060,-68.526468134850859));
#293=CARTESIAN_POINT('',(19.356692537840296,6.750441022297578,-68.158684032789779));
#294=CARTESIAN_POINT('',(18.875847276567363,8.129250769689419,-67.312109129363051));
#295=CARTESIAN_POINT('',(18.247547658476851,9.455185051759818,-66.192112369185807));
#296=CARTESIAN_POINT('',(17.487069470271631,10.698242909089977,-64.783459871059620));
#297=CARTESIAN_POINT('',(16.882689738769631,11.686146291076151,-63.663952392999789));
#298=CARTESIAN_POINT('',(16.198787086189210,12.615451375740948,-62.368988938863659));
#299=CARTESIAN_POINT('',(15.449249264138194,13.474817148092423,-60.891869928531250));
#300=CARTESIAN_POINT('',(14.932035066019768,14.067817482112845,-59.872592579238848));
#301=CARTESIAN_POINT('',(14.383600638814093,14.627535299854321,-58.766440591994382));
#302=CARTESIAN_POINT('',(13.809821034118453,15.150539363521673,-57.570452909356462));
#303=CARTESIAN_POINT('',(13.458044139967427,15.471186426679067,-56.837208247123442));
#304=CARTESIAN_POINT('',(13.096120592811589,15.778546479492981,-56.068787175258954));
#305=CARTESIAN_POINT('',(12.727675336974119,16.070354088089683,-55.268816532234425));
#306=CARTESIAN_POINT('',(11.288565768784663,17.210124827293459,-52.144212840349418));
#307=CARTESIAN_POINT('',(9.800931070625071,18.073938174846113,-48.652074258987795));
#308=CARTESIAN_POINT('',(8.364490132694627,18.715910472644776,-44.804884017779926));
#309=CARTESIAN_POINT('',(7.247314477254705,19.215197149617932,-41.812775420878054));
#310=CARTESIAN_POINT('',(6.161365733607552,19.579571029366797,-38.605767101063535));
#311=CARTESIAN_POINT('',(5.159304054878566,19.840150747141859,-35.188534683485415));
#312=CARTESIAN_POINT('',(4.559451250128396,19.996138624820848,-33.142915642582210));
#313=CARTESIAN_POINT('',(3.987365060549387,20.115711787422821,-31.014118940469036));
#314=CARTESIAN_POINT('',(3.455694612856341,20.206636898372668,-28.798727525457092));
#315=CARTESIAN_POINT('',(2.240647333631964,20.414431612470768,-23.735806832935577));
#316=CARTESIAN_POINT('',(1.239975025206124,20.471457026265025,-18.232388819752614));
#317=CARTESIAN_POINT('',(0.633559934254209,20.490207461363291,-12.331033380095663));
#318=CARTESIAN_POINT('',(0.238751247588634,20.502414998355704,-8.488935079045213));
#319=CARTESIAN_POINT('',(0.011182598756391,20.499999784916085,-4.478110175339097));
#320=CARTESIAN_POINT('',(0.000401500745898,20.499999996068226,-0.310419347290678));
#321=CARTESIAN_POINT('',(0.000133834127825,20.500000001310585,-0.206946425697832));
#322=CARTESIAN_POINT('',(-1.270539E-015,20.500000000000004,-0.103473267795981));
#323=CARTESIAN_POINT('',(-1.255222E-015,20.500000000000004,-5.207965E-015));
#324=B_SPLINE_CURVE_WITH_KNOTS('',3,(#236,#237,#238,#239,#240,#241,#242,#243,#244,#245,#246,#247,#248,#249,#250,#251,#252,#253,#254,#255,#256,#257,#258,#259,#260,#261,#262,#263,#264,#265,#266,#267,#268,#269,#270,#271,#272,#273,#274,#275,#276,#277,#278,#279,#280,#281,#282,#283,#284,#285,#286,#287,#288,#289,#290,#291,#292,#293,#294,#295,#296,#297,#298,#299,#300,#301,#302,#303,#304,#305,#306,#307,#308,#309,#310,#311,#312,#313,#314,#315,#316,#317,#318,#319,#320,#321,#322,#323),.UNSPECIFIED.,.F.,.U.,(4,3,3,3,3,3,3,3,3,3,3,3,3,3,3,3,3,3,3,3,3,3,3,3,3,3,3,3,3,4),(-28.497119246003432,-28.450383062518224,-26.672234121110836,-25.540124771146878,-24.772352287625466,-21.675808251672283,-21.128954332108595,-18.629278964373398,-18.243782803362947,-17.864758881129060,-16.748211451058495,-16.329968993234417,-15.978419500830416,-14.815137849157420,-14.240787996298128,-13.430665182694966,-12.929220392384343,-12.402042971391930,-11.499535807305111,-10.902429896886559,-9.527996158137924,-8.435683575244978,-7.681939654611723,-7.219828953541697,-5.414871715156273,-4.011086684677067,-3.170754791267742,-1.250311431733948,0.0,0.031041980338793),.UNSPECIFIED.);
#325=EDGE_CURVE('',#233,#235,#324,.T.);
#326=ORIENTED_EDGE('',*,*,#325,.F.);
#327=CARTESIAN_POINT('',(0.0,0.0,0.0));
#328=DIRECTION('',(0.0,0.0,-1.0));
#329=DIRECTION('',(-1.0,0.0,0.0));
#330=AXIS2_PLACEMENT_3D('',#327,#328,#329);
#331=CIRCLE('',#330,20.500000000000004);
#332=EDGE_CURVE('',#233,#235,#331,.T.);
#333=ORIENTED_EDGE('',*,*,#332,.T.);
#334=EDGE_LOOP('',(#326,#333));
#335=FACE_BOUND('',#334,.T.);
#336=ADVANCED_FACE('',(#231,#335),#220,.T.);
#337=CARTESIAN_POINT('',(0.0,0.0,-120.0));
#338=DIRECTION('',(0.0,0.0,-1.0));
#339=DIRECTION('',(-1.0,0.0,0.0));
#340=AXIS2_PLACEMENT_3D('',#337,#338,#339);
#341=PLANE('',#340);
#342=ORIENTED_EDGE('',*,*,#228,.T.);
#343=EDGE_LOOP('',(#342));
#344=FACE_OUTER_BOUND('',#343,.T.);
#345=ORIENTED_EDGE('',*,*,#184,.T.);
#346=EDGE_LOOP('',(#345));
#347=FACE_BOUND('',#346,.T.);
#348=ADVANCED_FACE('',(#344,#347),#341,.T.);
#349=CARTESIAN_POINT('',(60.0,0.0,-8.881784E-015));
#350=DIRECTION('',(0.0,1.0,0.0));
#351=DIRECTION('',(0.0,0.0,1.0));
#352=AXIS2_PLACEMENT_3D('',#349,#350,#351);
#353=TOROIDAL_SURFACE('',#352,60.0,20.500000000000004);
#354=CARTESIAN_POINT('',(59.999999999999993,2.510526E-015,-39.500000000000007));
#355=VERTEX_POINT('',#354);
#356=CARTESIAN_POINT('',(59.999999999999986,0.0,-60.000000000000007));
#357=DIRECTION('',(1.0,0.0,0.0));
#358=DIRECTION('',(0.0,0.0,-1.0));
#359=AXIS2_PLACEMENT_3D('',#356,#357,#358);
#360=CIRCLE('',#359,20.500000000000004);
#361=EDGE_CURVE('',#355,#355,#360,.T.);
#362=ORIENTED_EDGE('',*,*,#361,.F.);
#363=EDGE_LOOP('',(#362));
#364=FACE_OUTER_BOUND('',#363,.T.);
#365=ORIENTED_EDGE('',*,*,#325,.T.);
#366=CARTESIAN_POINT('',(0.0,0.0,0.0));
#367=DIRECTION('',(0.0,0.0,-1.0));
#368=DIRECTION('',(-1.0,0.0,0.0));
#369=AXIS2_PLACEMENT_3D('',#366,#367,#368);
#370=CIRCLE('',#369,20.500000000000004);
#371=EDGE_CURVE('',#235,#233,#370,.T.);
#372=ORIENTED_EDGE('',*,*,#371,.T.);
#373=EDGE_LOOP('',(#365,#372));
#374=FACE_BOUND('',#373,.T.);
#375=ADVANCED_FACE('',(#364,#374),#353,.T.);
#376=CARTESIAN_POINT('',(59.999999999999986,0.0,-60.000000000000007));
#377=DIRECTION('',(1.0,0.0,0.0));
#378=DIRECTION('',(0.0,0.0,-1.0));
#379=AXIS2_PLACEMENT_3D('',#376,#377,#378);
#380=PLANE('',#379);
#381=ORIENTED_EDGE('',*,*,#361,.T.);
#382=EDGE_LOOP('',(#381));
#383=FACE_OUTER_BOUND('',#382,.T.);
#384=ORIENTED_EDGE('',*,*,#201,.T.);
#385=EDGE_LOOP('',(#384));
#386=FACE_BOUND('',#385,.T.);
#387=ADVANCED_FACE('',(#383,#386),#380,.T.);
#388=CARTESIAN_POINT('',(0.0,0.0,0.0));
#389=DIRECTION('',(0.0,0.0,-1.0));
#390=DIRECTION('',(-1.0,0.0,0.0));
#391=AXIS2_PLACEMENT_3D('',#388,#389,#390);
#392=PLANE('',#391);
#393=ORIENTED_EDGE('',*,*,#371,.F.);
#394=ORIENTED_EDGE('',*,*,#332,.F.);
#395=EDGE_LOOP('',(#393,#394));
#396=FACE_OUTER_BOUND('',#395,.T.);
#397=ORIENTED_EDGE('',*,*,#211,.T.);
#398=ORIENTED_EDGE('',*,*,#173,.T.);
#399=EDGE_LOOP('',(#397,#398));
#400=FACE_BOUND('',#399,.T.);
#401=ADVANCED_FACE('',(#396,#400),#392,.F.);
#402=CLOSED_SHELL('',(#188,#215,#336,#348,#375,#387,#401));
#403=MANIFOLD_SOLID_BREP('',#402);
#404=COLOUR_RGB('Metall - Stahl',0.639216005802155,0.639216005802155,0.686275005340576);
#405=FILL_AREA_STYLE_COLOUR('Metall - Stahl',#404);
#406=FILL_AREA_STYLE('Metall - Stahl',(#405));
#407=SURFACE_STYLE_FILL_AREA(#406);
#408=SURFACE_SIDE_STYLE('Metall - Stahl',(#407));
#409=SURFACE_STYLE_USAGE(.BOTH.,#408);
#410=PRESENTATION_STYLE_ASSIGNMENT((#409));
#411=STYLED_ITEM('',(#410),#403);
#412=MECHANICAL_DESIGN_GEOMETRIC_PRESENTATION_REPRESENTATION('',(#411),#36);
#413=ADVANCED_BREP_SHAPE_REPRESENTATION('ABSR',(#403),#36);
#414=SHAPE_REPRESENTATION_RELATIONSHIP('SRR','None',#413,#41);
ENDSEC;
END-ISO-10303-21;
