ISO-10303-21;
HEADER;
/****************************************************************
 * Generated by software with PDE/Lib inside                    *
 * PDElib Version v51a, created Thu 12/14/2006                  *
 * International Technegroup Inc. (www.iti-oh.com)              *
 ****************************************************************/
FILE_DESCRIPTION((''),'2;1');
FILE_NAME('T:\\Arbeitspl\S\dtze\\Aushilfe\\KPeters\\3D\\Steps 08_10\\47220\\47220020X.stp','2010-08-17T10:30:15',('thilbrands'),(''),'Autodesk Inventor 2008','Autodesk Inventor 2008','');
FILE_SCHEMA(('AUTOMOTIVE_DESIGN { 1 0 10303 214 1 1 1 1 }'));
ENDSEC;
DATA;
#5=APPLICATION_CONTEXT('automotive design');
#6=APPLICATION_PROTOCOL_DEFINITION('International Standard','automotive_design',2001,#5);
#7=PRODUCT_CONTEXT('',#5,'mechanical');
#8=PRODUCT('472200101','472200101',$,(#7));
#9=PRODUCT_RELATED_PRODUCT_CATEGORY('part',$,(#8));
#10=PRODUCT_DEFINITION_FORMATION('',$,#8);
#11=PRODUCT_DEFINITION_CONTEXT('part definition',#5,'design');
#12=PRODUCT_DEFINITION('',$,#10,#11);
#18=(NAMED_UNIT(*)PLANE_ANGLE_UNIT()SI_UNIT($,.RADIAN.));
#19=DIMENSIONAL_EXPONENTS(0.0,0.0,0.0,0.0,0.0,0.0,0.0);
#20=PLANE_ANGLE_MEASURE_WITH_UNIT(PLANE_ANGLE_MEASURE(0.017453292500000),#18);
#24=(CONVERSION_BASED_UNIT('DEGREE',#20)NAMED_UNIT(#19)PLANE_ANGLE_UNIT());
#28=(NAMED_UNIT(*)SI_UNIT($,.STERADIAN.)SOLID_ANGLE_UNIT());
#32=(LENGTH_UNIT()NAMED_UNIT(*)SI_UNIT(.MILLI.,.METRE.));
#34=UNCERTAINTY_MEASURE_WITH_UNIT(LENGTH_MEASURE(0.010000000000000),#32,'DISTANCE_ACCURACY_VALUE','');
#36=(GEOMETRIC_REPRESENTATION_CONTEXT(3)GLOBAL_UNCERTAINTY_ASSIGNED_CONTEXT((#34))GLOBAL_UNIT_ASSIGNED_CONTEXT((#24,#28,#32))REPRESENTATION_CONTEXT('None','None'));
#37=AXIS2_PLACEMENT_3D('',#38,#39,#40);
#38=CARTESIAN_POINT('',(0.0,0.0,0.0));
#39=DIRECTION('',(0.0,0.0,1.0));
#40=DIRECTION('',(1.0,0.0,0.0));
#41=SHAPE_REPRESENTATION('',(#37),#36);
#42=PRODUCT_DEFINITION_SHAPE('','',#12);
#43=SHAPE_DEFINITION_REPRESENTATION(#42,#41);
#49=(NAMED_UNIT(*)PLANE_ANGLE_UNIT()SI_UNIT($,.RADIAN.));
#50=DIMENSIONAL_EXPONENTS(0.0,0.0,0.0,0.0,0.0,0.0,0.0);
#51=PLANE_ANGLE_MEASURE_WITH_UNIT(PLANE_ANGLE_MEASURE(0.017453292500000),#49);
#55=(CONVERSION_BASED_UNIT('DEGREE',#51)NAMED_UNIT(#50)PLANE_ANGLE_UNIT());
#59=(NAMED_UNIT(*)SI_UNIT($,.STERADIAN.)SOLID_ANGLE_UNIT());
#63=(LENGTH_UNIT()NAMED_UNIT(*)SI_UNIT(.MILLI.,.METRE.));
#65=UNCERTAINTY_MEASURE_WITH_UNIT(LENGTH_MEASURE(0.000001000000000),#63,'DISTANCE_ACCURACY_VALUE','');
#67=(GEOMETRIC_REPRESENTATION_CONTEXT(3)GLOBAL_UNCERTAINTY_ASSIGNED_CONTEXT((#65))GLOBAL_UNIT_ASSIGNED_CONTEXT((#55,#59,#63))REPRESENTATION_CONTEXT('','3D'));
#68=CARTESIAN_POINT('',(4.440892E-015,0.0,-80.0));
#69=DIRECTION('',(0.0,0.0,1.0));
#70=DIRECTION('',(1.0,0.0,0.0));
#71=AXIS2_PLACEMENT_3D('',#68,#69,#70);
#72=CYLINDRICAL_SURFACE('',#71,10.0);
#73=CARTESIAN_POINT('',(3.828589E-015,10.0,-1.991679E-015));
#74=VERTEX_POINT('',#73);
#75=CARTESIAN_POINT('',(3.828589E-015,-10.0,-1.991679E-015));
#76=VERTEX_POINT('',#75);
#77=CARTESIAN_POINT('',(3.828589E-015,10.0,-1.991679E-015));
#78=CARTESIAN_POINT('',(3.821508E-015,10.0,-0.063777310300463));
#79=CARTESIAN_POINT('',(0.000076266497978,10.000000000872477,-0.127554539211067));
#80=CARTESIAN_POINT('',(0.000228798797419,9.999999997382556,-0.191331667110168));
#81=CARTESIAN_POINT('',(0.008960512505312,9.999999797601996,-3.842254284601179));
#82=CARTESIAN_POINT('',(0.267281825348457,10.005469376272332,-7.292203531741871));
#83=CARTESIAN_POINT('',(0.691536600317890,9.976060200821804,-10.518833397808978));
#84=CARTESIAN_POINT('',(1.192876003653851,9.941307549012446,-14.331723168953273));
#85=CARTESIAN_POINT('',(1.925485078141203,9.850503627379540,-17.832998199661215));
#86=CARTESIAN_POINT('',(2.752442762703486,9.613743227174377,-20.985491226858553));
#87=CARTESIAN_POINT('',(3.590727674135054,9.373739808835575,-24.181165428122622));
#88=CARTESIAN_POINT('',(4.522890162803444,8.984038228511860,-27.013614083289223));
#89=CARTESIAN_POINT('',(5.430932229976467,8.396724070338555,-29.477943564574414));
#90=CARTESIAN_POINT('',(5.882752927456794,8.104490150590682,-30.704136827318315));
#91=CARTESIAN_POINT('',(6.329048707765967,7.764106115513781,-31.839212825768030));
#92=CARTESIAN_POINT('',(6.757716224842424,7.371110596409575,-32.882131864810518));
#93=CARTESIAN_POINT('',(6.982911638441762,7.164655045331341,-33.430017055527934));
#94=CARTESIAN_POINT('',(7.202942815010787,6.943649619008095,-33.951523377220020));
#95=CARTESIAN_POINT('',(7.411653131232596,6.713225592983607,-34.436383390205407));
#96=CARTESIAN_POINT('',(8.138569945288168,5.910682135085875,-36.125101524903201));
#97=CARTESIAN_POINT('',(8.740769214986864,4.979602925728434,-37.407861553204050));
#98=CARTESIAN_POINT('',(9.175807459841114,3.975494618273837,-38.316174046668309));
#99=CARTESIAN_POINT('',(9.394299882517014,3.471193997995600,-38.772362438358527));
#100=CARTESIAN_POINT('',(9.570976346135566,2.949204299545181,-39.133473697249158));
#101=CARTESIAN_POINT('',(9.703639631881078,2.416480476765110,-39.402821486550579));
#102=CARTESIAN_POINT('',(9.777006573238110,2.121867560721595,-39.551779228334780));
#103=CARTESIAN_POINT('',(9.837620466144500,1.822186825273457,-39.674027184075506));
#104=CARTESIAN_POINT('',(9.885194819109229,1.510934607538042,-39.769726816480350));
#105=CARTESIAN_POINT('',(9.936208637940524,1.177179900287149,-39.872345210751355));
#106=CARTESIAN_POINT('',(9.971567898945855,0.832649715440673,-39.943109742481894));
#107=CARTESIAN_POINT('',(9.988529230734541,0.478835887086314,-39.977051878765721));
#108=CARTESIAN_POINT('',(10.005073109763890,0.133730134299238,-40.010158630268101));
#109=CARTESIAN_POINT('',(10.003576813668394,-0.211750113669268,-40.007170768295197));
#110=CARTESIAN_POINT('',(9.984731891259960,-0.552384883624090,-39.969452117856122));
#111=CARTESIAN_POINT('',(9.957495280760169,-1.044705114552345,-39.914937264023294));
#112=CARTESIAN_POINT('',(9.892737221040973,-1.532552412875701,-39.785331384504083));
#113=CARTESIAN_POINT('',(9.800613158029156,-1.986952874797449,-39.599218493357469));
#114=CARTESIAN_POINT('',(9.641704980901634,-2.770764907497608,-39.278185537307230));
#115=CARTESIAN_POINT('',(9.403337062373653,-3.467186546989378,-38.792487700670229));
#116=CARTESIAN_POINT('',(9.131716221853734,-4.075752549350052,-38.224005487345217));
#117=CARTESIAN_POINT('',(8.963989748149283,-4.451543410599839,-37.872966455059640));
#118=CARTESIAN_POINT('',(8.783104271172283,-4.794608252282952,-37.489409187407965));
#119=CARTESIAN_POINT('',(8.598163660943671,-5.106033848264993,-37.090513419889277));
#120=CARTESIAN_POINT('',(8.408667954842244,-5.425129871230016,-36.681792830974885));
#121=CARTESIAN_POINT('',(8.211974804244781,-5.716307664346556,-36.250759446804757));
#122=CARTESIAN_POINT('',(8.011041961218957,-5.985249092192339,-35.801769701999824));
#123=CARTESIAN_POINT('',(7.784596697212697,-6.288337983553581,-35.295771778676809));
#124=CARTESIAN_POINT('',(7.553526073433236,-6.561853816382302,-34.768549116267124));
#125=CARTESIAN_POINT('',(7.323955960906837,-6.808793511533249,-34.232045713703606));
#126=CARTESIAN_POINT('',(7.181877022776162,-6.961622332686199,-33.900008442384355));
#127=CARTESIAN_POINT('',(7.040358493998154,-7.104265445521062,-33.564421845761281));
#128=CARTESIAN_POINT('',(6.900701996865552,-7.237424400327496,-33.228185618515013));
#129=CARTESIAN_POINT('',(6.772879976713860,-7.359299479211119,-32.920442014048163));
#130=CARTESIAN_POINT('',(6.645298468858639,-7.474583997413827,-32.609072786775904));
#131=CARTESIAN_POINT('',(6.515225794744115,-7.586292430660775,-32.286779448546085));
#132=CARTESIAN_POINT('',(5.778784368409369,-8.218759768432037,-30.462029036363592));
#133=CARTESIAN_POINT('',(4.990002736649352,-8.708179133419572,-28.356995017595651));
#134=CARTESIAN_POINT('',(4.213830216769116,-9.068827647730636,-25.965608690786706));
#135=CARTESIAN_POINT('',(3.804835728903742,-9.258866911724191,-24.705497309656646));
#136=CARTESIAN_POINT('',(3.399277735023537,-9.413153601626135,-23.363327209884837));
#137=CARTESIAN_POINT('',(3.014862532226429,-9.534705234656039,-21.963105544440385));
#138=CARTESIAN_POINT('',(2.038867372867824,-9.843313751140583,-18.408070370079393));
#139=CARTESIAN_POINT('',(1.188419531984484,-9.944235328298875,-14.449246382542110));
#140=CARTESIAN_POINT('',(0.641682546187738,-9.979390938825778,-10.132581477098343));
#141=CARTESIAN_POINT('',(0.245100062563536,-10.004891498872519,-7.001434813077446));
#142=CARTESIAN_POINT('',(0.008576818684224,-9.999999806380897,-3.681822835935829));
#143=CARTESIAN_POINT('',(0.000228798758597,-9.999999997382556,-0.191331667110265));
#144=CARTESIAN_POINT('',(0.000076266497972,-10.000000000872477,-0.127554539210061));
#145=CARTESIAN_POINT('',(3.821508E-015,-10.0,-0.063777310301468));
#146=CARTESIAN_POINT('',(3.828589E-015,-10.0,-1.991679E-015));
#147=B_SPLINE_CURVE_WITH_KNOTS('',3,(#77,#78,#79,#80,#81,#82,#83,#84,#85,#86,#87,#88,#89,#90,#91,#92,#93,#94,#95,#96,#97,#98,#99,#100,#101,#102,#103,#104,#105,#106,#107,#108,#109,#110,#111,#112,#113,#114,#115,#116,#117,#118,#119,#120,#121,#122,#123,#124,#125,#126,#127,#128,#129,#130,#131,#132,#133,#134,#135,#136,#137,#138,#139,#140,#141,#142,#143,#144,#145,#146),.UNSPECIFIED.,.F.,.U.,(4,3,3,3,3,3,3,3,3,3,3,3,3,3,3,3,3,3,3,3,3,3,3,4),(-10.324746998622986,-10.314310739802007,-9.716886951264790,-9.010914730432303,-8.295272477313924,-7.939185470291234,-7.752119369806828,-7.100587158828775,-6.773363396523292,-6.592398433649184,-6.398350312012799,-6.209078108024286,-5.935522548243108,-5.463656524028021,-5.172278203605173,-4.873723221533240,-4.537260746222645,-4.329027058105030,-4.138439070970007,-3.059373924939368,-2.490773922400918,-1.047150345469395,0.0,0.019133193090440),.UNSPECIFIED.);
#148=EDGE_CURVE('',#74,#76,#147,.T.);
#149=ORIENTED_EDGE('',*,*,#148,.F.);
#150=CARTESIAN_POINT('',(4.440892E-015,0.0,-5.974876E-015));
#151=DIRECTION('',(0.0,0.0,-1.0));
#152=DIRECTION('',(-1.0,0.0,0.0));
#153=AXIS2_PLACEMENT_3D('',#150,#151,#152);
#154=CIRCLE('',#153,10.0);
#155=EDGE_CURVE('',#76,#74,#154,.T.);
#156=ORIENTED_EDGE('',*,*,#155,.F.);
#157=EDGE_LOOP('',(#149,#156));
#158=FACE_OUTER_BOUND('',#157,.T.);
#159=CARTESIAN_POINT('',(-9.999999999999996,1.224647E-015,-80.0));
#160=VERTEX_POINT('',#159);
#161=CARTESIAN_POINT('',(4.440892E-015,0.0,-80.0));
#162=DIRECTION('',(0.0,0.0,1.0));
#163=DIRECTION('',(1.0,0.0,0.0));
#164=AXIS2_PLACEMENT_3D('',#161,#162,#163);
#165=CIRCLE('',#164,10.0);
#166=EDGE_CURVE('',#160,#160,#165,.T.);
#167=ORIENTED_EDGE('',*,*,#166,.F.);
#168=EDGE_LOOP('',(#167));
#169=FACE_BOUND('',#168,.T.);
#170=ADVANCED_FACE('',(#158,#169),#72,.F.);
#171=CARTESIAN_POINT('',(40.0,0.0,-4.440892E-015));
#172=DIRECTION('',(0.0,1.0,0.0));
#173=DIRECTION('',(0.0,0.0,1.0));
#174=AXIS2_PLACEMENT_3D('',#171,#172,#173);
#175=TOROIDAL_SURFACE('',#174,39.999999999999993,10.0);
#176=CARTESIAN_POINT('',(39.999999999999993,1.224647E-015,-30.0));
#177=VERTEX_POINT('',#176);
#178=CARTESIAN_POINT('',(39.999999999999993,0.0,-40.0));
#179=DIRECTION('',(-1.0,0.0,0.0));
#180=DIRECTION('',(0.0,0.0,-1.0));
#181=AXIS2_PLACEMENT_3D('',#178,#179,#180);
#182=CIRCLE('',#181,10.0);
#183=EDGE_CURVE('',#177,#177,#182,.T.);
#184=ORIENTED_EDGE('',*,*,#183,.F.);
#185=EDGE_LOOP('',(#184));
#186=FACE_OUTER_BOUND('',#185,.T.);
#187=ORIENTED_EDGE('',*,*,#148,.T.);
#188=CARTESIAN_POINT('',(4.440892E-015,0.0,-5.974876E-015));
#189=DIRECTION('',(0.0,0.0,-1.0));
#190=DIRECTION('',(-1.0,0.0,0.0));
#191=AXIS2_PLACEMENT_3D('',#188,#189,#190);
#192=CIRCLE('',#191,10.0);
#193=EDGE_CURVE('',#74,#76,#192,.T.);
#194=ORIENTED_EDGE('',*,*,#193,.F.);
#195=EDGE_LOOP('',(#187,#194));
#196=FACE_BOUND('',#195,.T.);
#197=ADVANCED_FACE('',(#186,#196),#175,.F.);
#198=CARTESIAN_POINT('',(0.0,0.0,-80.0));
#199=DIRECTION('',(0.0,0.0,1.0));
#200=DIRECTION('',(-1.0,0.0,0.0));
#201=AXIS2_PLACEMENT_3D('',#198,#199,#200);
#202=CYLINDRICAL_SURFACE('',#201,11.500000000000000);
#203=CARTESIAN_POINT('',(11.500000000000000,1.408344E-015,-80.0));
#204=VERTEX_POINT('',#203);
#205=CARTESIAN_POINT('',(0.0,0.0,-80.0));
#206=DIRECTION('',(0.0,0.0,-1.0));
#207=DIRECTION('',(-1.0,0.0,0.0));
#208=AXIS2_PLACEMENT_3D('',#205,#206,#207);
#209=CIRCLE('',#208,11.500000000000000);
#210=EDGE_CURVE('',#204,#204,#209,.T.);
#211=ORIENTED_EDGE('',*,*,#210,.F.);
#212=EDGE_LOOP('',(#211));
#213=FACE_OUTER_BOUND('',#212,.T.);
#214=CARTESIAN_POINT('',(1.183230E-015,-11.500000000000000,-1.991679E-015));
#215=VERTEX_POINT('',#214);
#216=CARTESIAN_POINT('',(1.183230E-015,11.500000000000000,-1.991679E-015));
#217=VERTEX_POINT('',#216);
#218=CARTESIAN_POINT('',(1.183230E-015,-11.500000000000000,-1.991679E-015));
#219=CARTESIAN_POINT('',(1.175911E-015,-11.500000000000000,-0.065932186369558));
#220=CARTESIAN_POINT('',(0.000081507292644,-11.500000000866521,-0.131864290252141));
#221=CARTESIAN_POINT('',(0.000244521049292,-11.499999997400408,-0.197796275100048));
#222=CARTESIAN_POINT('',(0.008168851822773,-11.499999828907772,-3.402843387183721));
#223=CARTESIAN_POINT('',(0.208625871466829,-11.504480573178968,-6.578445640536248));
#224=CARTESIAN_POINT('',(0.591001127424939,-11.484803771392111,-9.724205900123200));
#225=CARTESIAN_POINT('',(0.771284692321570,-11.475526487057875,-11.207379471298569));
#226=CARTESIAN_POINT('',(0.992011543968001,-11.460120021913442,-12.683939938136801));
#227=CARTESIAN_POINT('',(1.252062642723016,-11.431637640281354,-14.153798883539489));
#228=CARTESIAN_POINT('',(1.392844332769165,-11.416218371368815,-14.949524136975857));
#229=CARTESIAN_POINT('',(1.543515441368098,-11.397084310540347,-15.734011930826364));
#230=CARTESIAN_POINT('',(1.702893105876042,-11.373220962856559,-16.506450161684263));
#231=CARTESIAN_POINT('',(2.391197570398429,-11.270162301532135,-19.842379851134371));
#232=CARTESIAN_POINT('',(3.242197025206339,-11.078604932821600,-22.957636829604773));
#233=CARTESIAN_POINT('',(4.172798391330881,-10.716237846618860,-25.838880444263459));
#234=CARTESIAN_POINT('',(4.467939768085928,-10.601312676072443,-26.752670427979481));
#235=CARTESIAN_POINT('',(4.771128420440249,-10.469227438878212,-27.642917443532529));
#236=CARTESIAN_POINT('',(5.079818324769677,-10.317240221461075,-28.509137692381159));
#237=CARTESIAN_POINT('',(5.306319038013449,-10.205719848860292,-29.144725385527845));
#238=CARTESIAN_POINT('',(5.534778878886247,-10.083879941670320,-29.764415009943061));
#239=CARTESIAN_POINT('',(5.761147075515936,-9.952848053410348,-30.360888196535850));
#240=CARTESIAN_POINT('',(6.545444835105030,-9.498861946143075,-32.427488500221514));
#241=CARTESIAN_POINT('',(7.313095559443271,-8.929757922831083,-34.243036033369137));
#242=CARTESIAN_POINT('',(8.019686717289059,-8.242246353788353,-35.821081429323840));
#243=CARTESIAN_POINT('',(8.223996613553190,-8.043453295324738,-36.277371162881416));
#244=CARTESIAN_POINT('',(8.421554928974736,-7.837021407652401,-36.710144055076633));
#245=CARTESIAN_POINT('',(8.621721975834035,-7.610250335660478,-37.141291255601836));
#246=CARTESIAN_POINT('',(9.048112135746226,-7.127189036774140,-38.059708780674569));
#247=CARTESIAN_POINT('',(9.477507351221632,-6.559612427834527,-38.949213755975180));
#248=CARTESIAN_POINT('',(9.875023568367240,-5.893548126908909,-39.749261262805355));
#249=CARTESIAN_POINT('',(10.078894971671884,-5.551948318237222,-40.159576115112635));
#250=CARTESIAN_POINT('',(10.274816069382677,-5.184022459315543,-40.547504397405753));
#251=CARTESIAN_POINT('',(10.458858105959294,-4.781452406895787,-40.907423494440316));
#252=CARTESIAN_POINT('',(10.735489968492294,-4.176353129185265,-41.448414520327042));
#253=CARTESIAN_POINT('',(10.983285225447760,-3.494737261950794,-41.921918267220143));
#254=CARTESIAN_POINT('',(11.167534912014442,-2.745207458269510,-42.270623202435885));
#255=CARTESIAN_POINT('',(11.289161089152927,-2.250430797468404,-42.500808930346281));
#256=CARTESIAN_POINT('',(11.382952618095953,-1.727083824315369,-42.676499304633623));
#257=CARTESIAN_POINT('',(11.439482435788587,-1.178236649100843,-42.782206461637458));
#258=CARTESIAN_POINT('',(11.480339501071818,-0.781555998365645,-42.858606570303877));
#259=CARTESIAN_POINT('',(11.500704427085832,-0.380994156704175,-42.896534943421848));
#260=CARTESIAN_POINT('',(11.499981369652657,0.020700184583267,-42.895186433263397));
#261=CARTESIAN_POINT('',(11.499070036765227,0.526990898312969,-42.893486787287785));
#262=CARTESIAN_POINT('',(11.463556306478841,1.038802389242755,-42.827374299820598));
#263=CARTESIAN_POINT('',(11.398220695786332,1.526618803155553,-42.704979935902244));
#264=CARTESIAN_POINT('',(11.342109170726545,1.945565265027103,-42.599865215990874));
#265=CARTESIAN_POINT('',(11.264344427681335,2.350527718881586,-42.453830397006939));
#266=CARTESIAN_POINT('',(11.168926320271044,2.739540993005337,-42.273256454209516));
#267=CARTESIAN_POINT('',(11.072271383496863,3.133596738138396,-42.090341874389765));
#268=CARTESIAN_POINT('',(10.955791163016816,3.519056215489162,-41.868794001523050));
#269=CARTESIAN_POINT('',(10.818858877465939,3.899011745234487,-41.605497478032269));
#270=CARTESIAN_POINT('',(10.420623481689061,5.004023175935556,-40.839761371187933));
#271=CARTESIAN_POINT('',(9.847913549318422,6.051103335196470,-39.721953481357744));
#272=CARTESIAN_POINT('',(9.144015022066943,6.974022460260222,-38.249737300152937));
#273=CARTESIAN_POINT('',(8.801800294320769,7.422718550517265,-37.533989162986394));
#274=CARTESIAN_POINT('',(8.428507354116308,7.843477762496000,-36.733529169398274));
#275=CARTESIAN_POINT('',(8.030021001992935,8.232178490992062,-35.844153781598330));
#276=CARTESIAN_POINT('',(7.724422288880344,8.530272620894776,-35.162092846418481));
#277=CARTESIAN_POINT('',(7.402931431889778,8.810000862348433,-34.424758675820307));
#278=CARTESIAN_POINT('',(7.078449481811528,9.063418391172398,-33.653408699414754));
#279=CARTESIAN_POINT('',(6.032855349523583,9.880018146854802,-31.167849767475410));
#280=CARTESIAN_POINT('',(4.934078596039549,10.444374798205104,-28.286406027988093));
#281=CARTESIAN_POINT('',(3.912560798941994,10.813966339626841,-25.020186406793997));
#282=CARTESIAN_POINT('',(3.240150675109279,11.057248536805421,-22.870210022444983));
#283=CARTESIAN_POINT('',(2.601705879531258,11.216395173681143,-20.554153084182712));
#284=CARTESIAN_POINT('',(2.039452536367411,11.317713256303348,-18.064119292641568));
#285=CARTESIAN_POINT('',(1.235249290656264,11.462630724353446,-14.502569536761731));
#286=CARTESIAN_POINT('',(0.590296097000439,11.489761445991736,-10.594148543550659));
#287=CARTESIAN_POINT('',(0.254122992279991,11.497191896493451,-6.376494237808213));
#288=CARTESIAN_POINT('',(0.095354587138964,11.500701162282628,-4.384573295424195));
#289=CARTESIAN_POINT('',(0.005500643451078,11.499999885641076,-2.323669165976926));
#290=CARTESIAN_POINT('',(0.000244521007519,11.499999997400412,-0.197796275100154));
#291=CARTESIAN_POINT('',(0.000081507292639,11.500000000866521,-0.131864290250874));
#292=CARTESIAN_POINT('',(1.175911E-015,11.500000000000000,-0.065932186370825));
#293=CARTESIAN_POINT('',(1.183230E-015,11.500000000000000,-1.991679E-015));
#294=B_SPLINE_CURVE_WITH_KNOTS('',3,(#218,#219,#220,#221,#222,#223,#224,#225,#226,#227,#228,#229,#230,#231,#232,#233,#234,#235,#236,#237,#238,#239,#240,#241,#242,#243,#244,#245,#246,#247,#248,#249,#250,#251,#252,#253,#254,#255,#256,#257,#258,#259,#260,#261,#262,#263,#264,#265,#266,#267,#268,#269,#270,#271,#272,#273,#274,#275,#276,#277,#278,#279,#280,#281,#282,#283,#284,#285,#286,#287,#288,#289,#290,#291,#292,#293),.UNSPECIFIED.,.F.,.U.,(4,3,3,3,3,3,3,3,3,3,3,3,3,3,3,3,3,3,3,3,3,3,3,3,3,4),(-19.646695631326033,-19.608444252337588,-17.748990573777757,-16.872289132700082,-16.397676600272053,-14.347967025238047,-13.697899092882812,-13.220912809009299,-11.568298707883137,-11.090447532112528,-10.072542525029718,-9.550496597658704,-8.765814250610827,-8.247832831386287,-7.873460481986075,-7.401606078035514,-6.996368108554368,-6.585877360186480,-5.392061416916520,-4.811663274018837,-4.366556623270720,-2.932267590699448,-1.988152403726301,-0.637763816587683,0.0,0.019779655911247),.UNSPECIFIED.);
#295=EDGE_CURVE('',#215,#217,#294,.T.);
#296=ORIENTED_EDGE('',*,*,#295,.F.);
#297=CARTESIAN_POINT('',(0.0,0.0,0.0));
#298=DIRECTION('',(0.0,0.0,-1.0));
#299=DIRECTION('',(-1.0,0.0,0.0));
#300=AXIS2_PLACEMENT_3D('',#297,#298,#299);
#301=CIRCLE('',#300,11.500000000000000);
#302=EDGE_CURVE('',#215,#217,#301,.T.);
#303=ORIENTED_EDGE('',*,*,#302,.T.);
#304=EDGE_LOOP('',(#296,#303));
#305=FACE_BOUND('',#304,.T.);
#306=ADVANCED_FACE('',(#213,#305),#202,.T.);
#307=CARTESIAN_POINT('',(0.0,0.0,-80.0));
#308=DIRECTION('',(0.0,0.0,-1.0));
#309=DIRECTION('',(-1.0,0.0,0.0));
#310=AXIS2_PLACEMENT_3D('',#307,#308,#309);
#311=PLANE('',#310);
#312=ORIENTED_EDGE('',*,*,#210,.T.);
#313=EDGE_LOOP('',(#312));
#314=FACE_OUTER_BOUND('',#313,.T.);
#315=ORIENTED_EDGE('',*,*,#166,.T.);
#316=EDGE_LOOP('',(#315));
#317=FACE_BOUND('',#316,.T.);
#318=ADVANCED_FACE('',(#314,#317),#311,.T.);
#319=CARTESIAN_POINT('',(40.0,0.0,-4.440892E-015));
#320=DIRECTION('',(0.0,1.0,0.0));
#321=DIRECTION('',(0.0,0.0,1.0));
#322=AXIS2_PLACEMENT_3D('',#319,#320,#321);
#323=TOROIDAL_SURFACE('',#322,39.999999999999993,11.500000000000000);
#324=CARTESIAN_POINT('',(39.999999999999993,1.408344E-015,-28.500000000000000));
#325=VERTEX_POINT('',#324);
#326=CARTESIAN_POINT('',(39.999999999999993,0.0,-40.0));
#327=DIRECTION('',(1.0,0.0,0.0));
#328=DIRECTION('',(0.0,0.0,-1.0));
#329=AXIS2_PLACEMENT_3D('',#326,#327,#328);
#330=CIRCLE('',#329,11.500000000000000);
#331=EDGE_CURVE('',#325,#325,#330,.T.);
#332=ORIENTED_EDGE('',*,*,#331,.F.);
#333=EDGE_LOOP('',(#332));
#334=FACE_OUTER_BOUND('',#333,.T.);
#335=ORIENTED_EDGE('',*,*,#295,.T.);
#336=CARTESIAN_POINT('',(0.0,0.0,0.0));
#337=DIRECTION('',(0.0,0.0,-1.0));
#338=DIRECTION('',(-1.0,0.0,0.0));
#339=AXIS2_PLACEMENT_3D('',#336,#337,#338);
#340=CIRCLE('',#339,11.500000000000000);
#341=EDGE_CURVE('',#217,#215,#340,.T.);
#342=ORIENTED_EDGE('',*,*,#341,.T.);
#343=EDGE_LOOP('',(#335,#342));
#344=FACE_BOUND('',#343,.T.);
#345=ADVANCED_FACE('',(#334,#344),#323,.T.);
#346=CARTESIAN_POINT('',(39.999999999999993,0.0,-40.0));
#347=DIRECTION('',(1.0,0.0,0.0));
#348=DIRECTION('',(0.0,0.0,-1.0));
#349=AXIS2_PLACEMENT_3D('',#346,#347,#348);
#350=PLANE('',#349);
#351=ORIENTED_EDGE('',*,*,#331,.T.);
#352=EDGE_LOOP('',(#351));
#353=FACE_OUTER_BOUND('',#352,.T.);
#354=ORIENTED_EDGE('',*,*,#183,.T.);
#355=EDGE_LOOP('',(#354));
#356=FACE_BOUND('',#355,.T.);
#357=ADVANCED_FACE('',(#353,#356),#350,.T.);
#358=CARTESIAN_POINT('',(0.0,0.0,0.0));
#359=DIRECTION('',(0.0,0.0,-1.0));
#360=DIRECTION('',(-1.0,0.0,0.0));
#361=AXIS2_PLACEMENT_3D('',#358,#359,#360);
#362=PLANE('',#361);
#363=ORIENTED_EDGE('',*,*,#341,.F.);
#364=ORIENTED_EDGE('',*,*,#302,.F.);
#365=EDGE_LOOP('',(#363,#364));
#366=FACE_OUTER_BOUND('',#365,.T.);
#367=ORIENTED_EDGE('',*,*,#193,.T.);
#368=ORIENTED_EDGE('',*,*,#155,.T.);
#369=EDGE_LOOP('',(#367,#368));
#370=FACE_BOUND('',#369,.T.);
#371=ADVANCED_FACE('',(#366,#370),#362,.F.);
#372=CLOSED_SHELL('',(#170,#197,#306,#318,#345,#357,#371));
#373=MANIFOLD_SOLID_BREP('',#372);
#374=COLOUR_RGB('Metall - Stahl',0.639216005802155,0.639216005802155,0.686275005340576);
#375=FILL_AREA_STYLE_COLOUR('Metall - Stahl',#374);
#376=FILL_AREA_STYLE('Metall - Stahl',(#375));
#377=SURFACE_STYLE_FILL_AREA(#376);
#378=SURFACE_SIDE_STYLE('Metall - Stahl',(#377));
#379=SURFACE_STYLE_USAGE(.BOTH.,#378);
#380=PRESENTATION_STYLE_ASSIGNMENT((#379));
#381=STYLED_ITEM('',(#380),#373);
#382=MECHANICAL_DESIGN_GEOMETRIC_PRESENTATION_REPRESENTATION('',(#381),#36);
#383=ADVANCED_BREP_SHAPE_REPRESENTATION('ABSR',(#373),#36);
#384=SHAPE_REPRESENTATION_RELATIONSHIP('SRR','None',#383,#41);
ENDSEC;
END-ISO-10303-21;
