ISO-10303-21;
HEADER;
FILE_DESCRIPTION (( 'STEP AP214' ),
    '1' );
FILE_NAME ('CR 1''''x3.4''''.STEP',
    '2026-01-13T08:27:25',
    ( '' ),
    ( '' ),
    'SwSTEP 2.0',
    'SolidWorks 2018',
    '' );
FILE_SCHEMA (( 'AUTOMOTIVE_DESIGN' ));
ENDSEC;

DATA;
#1 = CARTESIAN_POINT ( 'NONE',  ( 0.0000000000000000000, -0.6064271821581949107, -11.04999999999999893 ) ) ;
#2 = FACE_OUTER_BOUND ( 'NONE', #25, .T. ) ;
#3 = PRESENTATION_LAYER_ASSIGNMENT (  '', '', ( #23 ) ) ;
#4 = ADVANCED_FACE ( 'NONE', ( #187 ), #109, .T. ) ;
#5 =( NAMED_UNIT ( * ) PLANE_ANGLE_UNIT ( ) SI_UNIT ( $, .RADIAN. ) );
#6 =( NAMED_UNIT ( * ) PLANE_ANGLE_UNIT ( ) SI_UNIT ( $, .RADIAN. ) );
#7 = CIRCLE ( 'NONE', #51, 9.525000000000000355 ) ;
#8 = DIRECTION ( 'NONE',  ( -1.000000000000000000, -0.0000000000000000000, -0.0000000000000000000 ) ) ;
#9 = PRODUCT ( 'CR 1''''''''x3.4''''''''', 'CR 1''''''''x3.4''''''''', '', ( #118 ) ) ;
#10 = VECTOR ( 'NONE', #213, 1000.000000000000000 ) ;
#11 = ORIENTED_EDGE ( 'NONE', *, *, #97, .F. ) ;
#12 = AXIS2_PLACEMENT_3D ( 'NONE', #135, #169, #116 ) ;
#13 = DIRECTION ( 'NONE',  ( 0.0000000000000000000, 0.0000000000000000000, 1.000000000000000000 ) ) ;
#14 = EDGE_CURVE ( 'NONE', #206, #129, #139, .T. ) ;
#15 = EDGE_LOOP ( 'NONE', ( #170, #204 ) ) ;
#16 = DIRECTION ( 'NONE',  ( -1.000000000000000000, 0.0000000000000000000, -0.0000000000000000000 ) ) ;
#17 = AXIS2_PLACEMENT_3D ( 'NONE', #173, #74, #13 ) ;
#18 = CARTESIAN_POINT ( 'NONE',  ( 30.00000000000000000, -0.6064271821581950217, -9.525000000000000355 ) ) ;
#19 = DIRECTION ( 'NONE',  ( 0.0000000000000000000, 0.0000000000000000000, 1.000000000000000000 ) ) ;
#20 = APPLICATION_PROTOCOL_DEFINITION ( 'draft international standard', 'automotive_design', 1998, #152 ) ;
#21 = ADVANCED_FACE ( 'NONE', ( #55, #172 ), #209, .F. ) ;
#22 = EDGE_CURVE ( 'NONE', #90, #210, #7, .T. ) ;
#23 = STYLED_ITEM ( 'NONE', ( #208 ), #73 ) ;
#24 = ORIENTED_EDGE ( 'NONE', *, *, #114, .F. ) ;
#25 = EDGE_LOOP ( 'NONE', ( #35, #32, #31, #24 ) ) ;
#26 = DIRECTION ( 'NONE',  ( -1.000000000000000000, -0.0000000000000000000, -0.0000000000000000000 ) ) ;
#27 = CARTESIAN_POINT ( 'NONE',  ( 30.00000000000000000, -0.6064271821581961319, 0.0000000000000000000 ) ) ;
#28 = CARTESIAN_POINT ( 'NONE',  ( 30.00000000000000000, -0.6064271821581961319, 7.875000000000000000 ) ) ;
#29 = EDGE_CURVE ( 'NONE', #119, #195, #153, .T. ) ;
#30 = COLOUR_RGB ( '',0.7921568627450980005, 0.8196078431372548767, 0.9333333333333333481 ) ;
#31 = ORIENTED_EDGE ( 'NONE', *, *, #171, .F. ) ;
#32 = ORIENTED_EDGE ( 'NONE', *, *, #128, .T. ) ;
#33 = APPLICATION_PROTOCOL_DEFINITION ( 'draft international standard', 'automotive_design', 1998, #131 ) ;
#34 = ORIENTED_EDGE ( 'NONE', *, *, #159, .F. ) ;
#35 = ORIENTED_EDGE ( 'NONE', *, *, #22, .T. ) ;
#36 = EDGE_LOOP ( 'NONE', ( #34, #68, #211, #197 ) ) ;
#37 = ADVANCED_BREP_SHAPE_REPRESENTATION ( 'CR 1''''''''x3.4''''''''', ( #73, #203 ), #179 ) ;
#38 = SURFACE_STYLE_FILL_AREA ( #177 ) ;
#39 = AXIS2_PLACEMENT_3D ( 'NONE', #192, #16, #124 ) ;
#40 = EDGE_LOOP ( 'NONE', ( #11, #167 ) ) ;
#41 = CONICAL_SURFACE ( 'NONE', #100, 11.04999999999999893, 0.1054408321379767671 ) ;
#42 = CARTESIAN_POINT ( 'NONE',  ( 30.00000000000000000, -0.6064271821581961319, 9.525000000000000355 ) ) ;
#43 = ADVANCED_FACE ( 'NONE', ( #84, #147 ), #123, .F. ) ;
#44 =( LENGTH_UNIT ( ) NAMED_UNIT ( * ) SI_UNIT ( .MILLI., .METRE. ) );
#45 = CARTESIAN_POINT ( 'NONE',  ( 0.0000000000000000000, -0.6064271821581961319, 0.0000000000000000000 ) ) ;
#46 =( LENGTH_UNIT ( ) NAMED_UNIT ( * ) SI_UNIT ( .MILLI., .METRE. ) );
#47 = UNCERTAINTY_MEASURE_WITH_UNIT (LENGTH_MEASURE( 1.000000000000000082E-05 ), #46, 'distance_accuracy_value', 'NONE');
#48 = ADVANCED_FACE ( 'NONE', ( #2 ), #71, .T. ) ;
#49 = PRODUCT_DEFINITION_FORMATION_WITH_SPECIFIED_SOURCE ( 'ANY', '', #9, .NOT_KNOWN. ) ;
#50 = SURFACE_STYLE_USAGE ( .BOTH. , #183 ) ;
#51 = AXIS2_PLACEMENT_3D ( 'NONE', #160, #26, #95 ) ;
#52 = AXIS2_PLACEMENT_3D ( 'NONE', #113, #76, #19 ) ;
#53 = AXIS2_PLACEMENT_3D ( 'NONE', #45, #89, #175 ) ;
#54 = CONICAL_SURFACE ( 'NONE', #12, 11.04999999999999893, 0.1054408321379767671 ) ;
#55 = FACE_OUTER_BOUND ( 'NONE', #15, .T. ) ;
#56 = CIRCLE ( 'NONE', #185, 12.69999999999999929 ) ;
#57 = SURFACE_SIDE_STYLE ('',( #38 ) ) ;
#58 = DIRECTION ( 'NONE',  ( 0.0000000000000000000, 0.0000000000000000000, 1.000000000000000000 ) ) ;
#59 = AXIS2_PLACEMENT_3D ( 'NONE', #181, #144, #108 ) ;
#60 = CARTESIAN_POINT ( 'NONE',  ( 0.0000000000000000000, -0.6064271821581961319, 12.69999999999999929 ) ) ;
#61 = VERTEX_POINT ( 'NONE', #178 ) ;
#62 = DIRECTION ( 'NONE',  ( 0.0000000000000000000, 0.0000000000000000000, 1.000000000000000000 ) ) ;
#63 = COLOUR_RGB ( '',0.7921568627450980005, 0.8196078431372548767, 0.9333333333333333481 ) ;
#64 = DIRECTION ( 'NONE',  ( 1.000000000000000000, 0.0000000000000000000, 0.0000000000000000000 ) ) ;
#65 = CARTESIAN_POINT ( 'NONE',  ( 0.0000000000000000000, -0.6064271821581961319, 11.04999999999999893 ) ) ;
#66 = EDGE_LOOP ( 'NONE', ( #138, #75 ) ) ;
#67 =( NAMED_UNIT ( * ) SI_UNIT ( $, .STERADIAN. ) SOLID_ANGLE_UNIT ( ) );
#68 = ORIENTED_EDGE ( 'NONE', *, *, #87, .F. ) ;
#69 = FACE_OUTER_BOUND ( 'NONE', #122, .T. ) ;
#70 = LINE ( 'NONE', #127, #10 ) ;
#71 = CONICAL_SURFACE ( 'NONE', #205, 9.525000000000000355, 0.1054408321379767671 ) ;
#72 = AXIS2_PLACEMENT_3D ( 'NONE', #196, #212, #145 ) ;
#73 = MANIFOLD_SOLID_BREP ( 'Revolve1', #158 ) ;
#74 = DIRECTION ( 'NONE',  ( -1.000000000000000000, -0.0000000000000000000, -0.0000000000000000000 ) ) ;
#75 = ORIENTED_EDGE ( 'NONE', *, *, #14, .T. ) ;
#76 = DIRECTION ( 'NONE',  ( -1.000000000000000000, -0.0000000000000000000, -0.0000000000000000000 ) ) ;
#77 = CARTESIAN_POINT ( 'NONE',  ( 30.00000000000000000, -0.6064271821581961319, 0.0000000000000000000 ) ) ;
#78 = EDGE_CURVE ( 'NONE', #210, #90, #101, .T. ) ;
#79 = CARTESIAN_POINT ( 'NONE',  ( 0.0000000000000000000, -0.6064271821581961319, 11.04999999999999893 ) ) ;
#80 = DIRECTION ( 'NONE',  ( -1.000000000000000000, -0.0000000000000000000, -0.0000000000000000000 ) ) ;
#81 = ORIENTED_EDGE ( 'NONE', *, *, #78, .T. ) ;
#82 = FILL_AREA_STYLE ('',( #184 ) ) ;
#83 = UNCERTAINTY_MEASURE_WITH_UNIT (LENGTH_MEASURE( 1.000000000000000082E-05 ), #201, 'distance_accuracy_value', 'NONE');
#84 = FACE_BOUND ( 'NONE', #40, .T. ) ;
#85 = PRODUCT_DEFINITION_CONTEXT ( 'detailed design', #131, 'design' ) ;
#86 = LINE ( 'NONE', #18, #189 ) ;
#87 = EDGE_CURVE ( 'NONE', #164, #61, #150, .T. ) ;
#88 = DIRECTION ( 'NONE',  ( 0.0000000000000000000, 0.0000000000000000000, 1.000000000000000000 ) ) ;
#89 = DIRECTION ( 'NONE',  ( -1.000000000000000000, -0.0000000000000000000, -0.0000000000000000000 ) ) ;
#90 = VERTEX_POINT ( 'NONE', #130 ) ;
#91 = DIRECTION ( 'NONE',  ( -1.000000000000000000, -0.0000000000000000000, -0.0000000000000000000 ) ) ;
#92 = AXIS2_PLACEMENT_3D ( 'NONE', #141, #174, #88 ) ;
#93 = SURFACE_STYLE_USAGE ( .BOTH. , #57 ) ;
#94 = DIRECTION ( 'NONE',  ( -0.9944462637503367342, 1.288886417465737883E-17, -0.1052455629135772702 ) ) ;
#95 = DIRECTION ( 'NONE',  ( 0.0000000000000000000, 0.0000000000000000000, 1.000000000000000000 ) ) ;
#96 = CARTESIAN_POINT ( 'NONE',  ( 30.00000000000000000, -0.6064271821581949107, -9.525000000000000355 ) ) ;
#97 = EDGE_CURVE ( 'NONE', #195, #119, #180, .T. ) ;
#98 = CARTESIAN_POINT ( 'NONE',  ( 0.0000000000000000000, 0.0000000000000000000, 0.0000000000000000000 ) ) ;
#99 = CARTESIAN_POINT ( 'NONE',  ( 0.0000000000000000000, -0.6064271821581961319, 0.0000000000000000000 ) ) ;
#100 = AXIS2_PLACEMENT_3D ( 'NONE', #166, #80, #168 ) ;
#101 = CIRCLE ( 'NONE', #72, 9.525000000000000355 ) ;
#102 = EDGE_CURVE ( 'NONE', #61, #164, #163, .T. ) ;
#103 = UNCERTAINTY_MEASURE_WITH_UNIT (LENGTH_MEASURE( 1.000000000000000082E-05 ), #44, 'distance_accuracy_value', 'NONE');
#104 = AXIS2_PLACEMENT_3D ( 'NONE', #27, #110, #62 ) ;
#105 = EDGE_LOOP ( 'NONE', ( #120, #81, #107, #207 ) ) ;
#106 = MECHANICAL_DESIGN_GEOMETRIC_PRESENTATION_REPRESENTATION (  '', ( #23 ), #121 ) ;
#107 = ORIENTED_EDGE ( 'NONE', *, *, #114, .T. ) ;
#108 = DIRECTION ( 'NONE',  ( 0.0000000000000000000, 0.0000000000000000000, -1.000000000000000000 ) ) ;
#109 = CONICAL_SURFACE ( 'NONE', #17, 9.525000000000000355, 0.1054408321379767671 ) ;
#110 = DIRECTION ( 'NONE',  ( -1.000000000000000000, -0.0000000000000000000, -0.0000000000000000000 ) ) ;
#111 = CARTESIAN_POINT ( 'NONE',  ( 0.0000000000000000000, -0.6064271821581961319, 0.0000000000000000000 ) ) ;
#112 = ORIENTED_EDGE ( 'NONE', *, *, #159, .T. ) ;
#113 = CARTESIAN_POINT ( 'NONE',  ( 30.00000000000000000, -0.6064271821581961319, 0.0000000000000000000 ) ) ;
#114 = EDGE_CURVE ( 'NONE', #90, #129, #117, .T. ) ;
#115 = ORIENTED_EDGE ( 'NONE', *, *, #149, .F. ) ;
#116 = DIRECTION ( 'NONE',  ( 0.0000000000000000000, 0.0000000000000000000, 1.000000000000000000 ) ) ;
#117 = LINE ( 'NONE', #42, #188 ) ;
#118 = PRODUCT_CONTEXT ( 'NONE', #152, 'mechanical' ) ;
#119 = VERTEX_POINT ( 'NONE', #1 ) ;
#120 = ORIENTED_EDGE ( 'NONE', *, *, #128, .F. ) ;
#121 =( GEOMETRIC_REPRESENTATION_CONTEXT ( 3 ) GLOBAL_UNCERTAINTY_ASSIGNED_CONTEXT ( ( #103 ) ) GLOBAL_UNIT_ASSIGNED_CONTEXT ( ( #44, #182, #143 ) ) REPRESENTATION_CONTEXT ( 'NONE', 'WORKASPACE' ) );
#122 = EDGE_LOOP ( 'NONE', ( #161, #112, #126, #115 ) ) ;
#123 = PLANE ( 'NONE',  #59 ) ;
#124 = DIRECTION ( 'NONE',  ( -0.0000000000000000000, 0.0000000000000000000, 1.000000000000000000 ) ) ;
#125 = PRODUCT_DEFINITION ( 'UNKNOWN', '', #49, #85 ) ;
#126 = ORIENTED_EDGE ( 'NONE', *, *, #29, .T. ) ;
#127 = CARTESIAN_POINT ( 'NONE',  ( 0.0000000000000000000, -0.6064271821581949107, -11.04999999999999893 ) ) ;
#128 = EDGE_CURVE ( 'NONE', #210, #206, #86, .T. ) ;
#129 = VERTEX_POINT ( 'NONE', #60 ) ;
#130 = CARTESIAN_POINT ( 'NONE',  ( 30.00000000000000000, -0.6064271821581961319, 9.525000000000000355 ) ) ;
#131 = APPLICATION_CONTEXT ( 'automotive_design' ) ;
#132 = DIRECTION ( 'NONE',  ( 0.0000000000000000000, 0.0000000000000000000, 1.000000000000000000 ) ) ;
#133 = SHAPE_DEFINITION_REPRESENTATION ( #190, #37 ) ;
#134 =( NAMED_UNIT ( * ) SI_UNIT ( $, .STERADIAN. ) SOLID_ANGLE_UNIT ( ) );
#135 = CARTESIAN_POINT ( 'NONE',  ( 0.0000000000000000000, -0.6064271821581961319, 0.0000000000000000000 ) ) ;
#136 = MECHANICAL_DESIGN_GEOMETRIC_PRESENTATION_REPRESENTATION (  '', ( #142 ), #154 ) ;
#137 = FACE_OUTER_BOUND ( 'NONE', #36, .T. ) ;
#138 = ORIENTED_EDGE ( 'NONE', *, *, #171, .T. ) ;
#139 = CIRCLE ( 'NONE', #92, 12.69999999999999929 ) ;
#140 = EDGE_LOOP ( 'NONE', ( #214, #157 ) ) ;
#141 = CARTESIAN_POINT ( 'NONE',  ( 0.0000000000000000000, -0.6064271821581961319, 0.0000000000000000000 ) ) ;
#142 = STYLED_ITEM ( 'NONE', ( #155 ), #37 ) ;
#143 =( NAMED_UNIT ( * ) SI_UNIT ( $, .STERADIAN. ) SOLID_ANGLE_UNIT ( ) );
#144 = DIRECTION ( 'NONE',  ( 1.000000000000000000, 0.0000000000000000000, 0.0000000000000000000 ) ) ;
#145 = DIRECTION ( 'NONE',  ( 0.0000000000000000000, 0.0000000000000000000, 1.000000000000000000 ) ) ;
#146 = LINE ( 'NONE', #79, #186 ) ;
#147 = FACE_OUTER_BOUND ( 'NONE', #66, .T. ) ;
#148 = DIRECTION ( 'NONE',  ( -1.000000000000000000, -0.0000000000000000000, -0.0000000000000000000 ) ) ;
#149 = EDGE_CURVE ( 'NONE', #164, #195, #146, .T. ) ;
#150 = CIRCLE ( 'NONE', #104, 7.875000000000000000 ) ;
#151 = DIRECTION ( 'NONE',  ( 0.0000000000000000000, 0.0000000000000000000, 1.000000000000000000 ) ) ;
#152 = APPLICATION_CONTEXT ( 'automotive_design' ) ;
#153 = CIRCLE ( 'NONE', #191, 11.04999999999999893 ) ;
#154 =( GEOMETRIC_REPRESENTATION_CONTEXT ( 3 ) GLOBAL_UNCERTAINTY_ASSIGNED_CONTEXT ( ( #83 ) ) GLOBAL_UNIT_ASSIGNED_CONTEXT ( ( #201, #5, #67 ) ) REPRESENTATION_CONTEXT ( 'NONE', 'WORKASPACE' ) );
#155 = PRESENTATION_STYLE_ASSIGNMENT (( #50 ) ) ;
#156 = PRESENTATION_LAYER_ASSIGNMENT (  '', '', ( #142 ) ) ;
#157 = ORIENTED_EDGE ( 'NONE', *, *, #102, .T. ) ;
#158 = CLOSED_SHELL ( 'NONE', ( #193, #48, #4, #21, #176, #43 ) ) ;
#159 = EDGE_CURVE ( 'NONE', #61, #119, #70, .T. ) ;
#160 = CARTESIAN_POINT ( 'NONE',  ( 30.00000000000000000, -0.6064271821581961319, 0.0000000000000000000 ) ) ;
#161 = ORIENTED_EDGE ( 'NONE', *, *, #102, .F. ) ;
#162 = DIRECTION ( 'NONE',  ( -0.9944462637503367342, 0.0000000000000000000, 0.1052455629135772702 ) ) ;
#163 = CIRCLE ( 'NONE', #52, 7.875000000000000000 ) ;
#164 = VERTEX_POINT ( 'NONE', #28 ) ;
#165 = FILL_AREA_STYLE_COLOUR ( '', #30 ) ;
#166 = CARTESIAN_POINT ( 'NONE',  ( 0.0000000000000000000, -0.6064271821581961319, 0.0000000000000000000 ) ) ;
#167 = ORIENTED_EDGE ( 'NONE', *, *, #29, .F. ) ;
#168 = DIRECTION ( 'NONE',  ( 0.0000000000000000000, 0.0000000000000000000, 1.000000000000000000 ) ) ;
#169 = DIRECTION ( 'NONE',  ( -1.000000000000000000, -0.0000000000000000000, -0.0000000000000000000 ) ) ;
#170 = ORIENTED_EDGE ( 'NONE', *, *, #22, .F. ) ;
#171 = EDGE_CURVE ( 'NONE', #129, #206, #56, .T. ) ;
#172 = FACE_BOUND ( 'NONE', #140, .T. ) ;
#173 = CARTESIAN_POINT ( 'NONE',  ( 30.00000000000000000, -0.6064271821581961319, 0.0000000000000000000 ) ) ;
#174 = DIRECTION ( 'NONE',  ( -1.000000000000000000, -0.0000000000000000000, -0.0000000000000000000 ) ) ;
#175 = DIRECTION ( 'NONE',  ( 0.0000000000000000000, 0.0000000000000000000, 1.000000000000000000 ) ) ;
#176 = ADVANCED_FACE ( 'NONE', ( #137 ), #41, .F. ) ;
#177 = FILL_AREA_STYLE ('',( #165 ) ) ;
#178 = CARTESIAN_POINT ( 'NONE',  ( 30.00000000000000000, -0.6064271821581951327, -7.875000000000000000 ) ) ;
#179 =( GEOMETRIC_REPRESENTATION_CONTEXT ( 3 ) GLOBAL_UNCERTAINTY_ASSIGNED_CONTEXT ( ( #47 ) ) GLOBAL_UNIT_ASSIGNED_CONTEXT ( ( #46, #6, #134 ) ) REPRESENTATION_CONTEXT ( 'NONE', 'WORKASPACE' ) );
#180 = CIRCLE ( 'NONE', #53, 11.04999999999999893 ) ;
#181 = CARTESIAN_POINT ( 'NONE',  ( 0.0000000000000000000, 12.09357281784180316, 0.0000000000000000000 ) ) ;
#182 =( NAMED_UNIT ( * ) PLANE_ANGLE_UNIT ( ) SI_UNIT ( $, .RADIAN. ) );
#183 = SURFACE_SIDE_STYLE ('',( #202 ) ) ;
#184 = FILL_AREA_STYLE_COLOUR ( '', #63 ) ;
#185 = AXIS2_PLACEMENT_3D ( 'NONE', #99, #8, #151 ) ;
#186 = VECTOR ( 'NONE', #198, 1000.000000000000000 ) ;
#187 = FACE_OUTER_BOUND ( 'NONE', #105, .T. ) ;
#188 = VECTOR ( 'NONE', #162, 1000.000000000000000 ) ;
#189 = VECTOR ( 'NONE', #94, 1000.000000000000000 ) ;
#190 = PRODUCT_DEFINITION_SHAPE ( 'NONE', 'NONE',  #125 ) ;
#191 = AXIS2_PLACEMENT_3D ( 'NONE', #111, #148, #194 ) ;
#192 = CARTESIAN_POINT ( 'NONE',  ( 30.00000000000000000, 8.918572817841804223, 0.0000000000000000000 ) ) ;
#193 = ADVANCED_FACE ( 'NONE', ( #69 ), #54, .F. ) ;
#194 = DIRECTION ( 'NONE',  ( 0.0000000000000000000, 0.0000000000000000000, 1.000000000000000000 ) ) ;
#195 = VERTEX_POINT ( 'NONE', #65 ) ;
#196 = CARTESIAN_POINT ( 'NONE',  ( 30.00000000000000000, -0.6064271821581961319, 0.0000000000000000000 ) ) ;
#197 = ORIENTED_EDGE ( 'NONE', *, *, #97, .T. ) ;
#198 = DIRECTION ( 'NONE',  ( -0.9944462637503367342, 0.0000000000000000000, 0.1052455629135772702 ) ) ;
#199 = PRODUCT_RELATED_PRODUCT_CATEGORY ( 'part', '', ( #9 ) ) ;
#200 = CARTESIAN_POINT ( 'NONE',  ( 0.0000000000000000000, -0.6064271821581945776, -12.69999999999999929 ) ) ;
#201 =( LENGTH_UNIT ( ) NAMED_UNIT ( * ) SI_UNIT ( .MILLI., .METRE. ) );
#202 = SURFACE_STYLE_FILL_AREA ( #82 ) ;
#203 = AXIS2_PLACEMENT_3D ( 'NONE', #98, #132, #64 ) ;
#204 = ORIENTED_EDGE ( 'NONE', *, *, #78, .F. ) ;
#205 = AXIS2_PLACEMENT_3D ( 'NONE', #77, #91, #58 ) ;
#206 = VERTEX_POINT ( 'NONE', #200 ) ;
#207 = ORIENTED_EDGE ( 'NONE', *, *, #14, .F. ) ;
#208 = PRESENTATION_STYLE_ASSIGNMENT (( #93 ) ) ;
#209 = PLANE ( 'NONE',  #39 ) ;
#210 = VERTEX_POINT ( 'NONE', #96 ) ;
#211 = ORIENTED_EDGE ( 'NONE', *, *, #149, .T. ) ;
#212 = DIRECTION ( 'NONE',  ( -1.000000000000000000, -0.0000000000000000000, -0.0000000000000000000 ) ) ;
#213 = DIRECTION ( 'NONE',  ( -0.9944462637503367342, 1.288886417465737883E-17, -0.1052455629135772702 ) ) ;
#214 = ORIENTED_EDGE ( 'NONE', *, *, #87, .T. ) ;
ENDSEC;
END-ISO-10303-21;
