ISO-10303-21;
HEADER;
FILE_DESCRIPTION (( 'STEP AP214' ),
    '1' );
FILE_NAME ('CR 1.5''''x1''''.STEP',
    '2026-01-13T08:23:54',
    ( '' ),
    ( '' ),
    'SwSTEP 2.0',
    'SolidWorks 2018',
    '' );
FILE_SCHEMA (( 'AUTOMOTIVE_DESIGN' ));
ENDSEC;

DATA;
#1 = CARTESIAN_POINT ( 'NONE',  ( -1.257674520083185341E-15, -2.804952123438647860, 0.0000000000000000000 ) ) ;
#2 = VERTEX_POINT ( 'NONE', #183 ) ;
#3 = DIRECTION ( 'NONE',  ( -1.000000000000000000, 7.228014483236695816E-17, -0.0000000000000000000 ) ) ;
#4 = DIRECTION ( 'NONE',  ( 0.0000000000000000000, 0.0000000000000000000, 1.000000000000000000 ) ) ;
#5 = ADVANCED_FACE ( 'NONE', ( #172 ), #161, .T. ) ;
#6 = VECTOR ( 'NONE', #185, 999.9999999999998863 ) ;
#7 =( LENGTH_UNIT ( ) NAMED_UNIT ( * ) SI_UNIT ( .MILLI., .METRE. ) );
#8 = ORIENTED_EDGE ( 'NONE', *, *, #57, .F. ) ;
#9 = VECTOR ( 'NONE', #93, 999.9999999999998863 ) ;
#10 = VERTEX_POINT ( 'NONE', #130 ) ;
#11 = FILL_AREA_STYLE_COLOUR ( '', #25 ) ;
#12 = UNCERTAINTY_MEASURE_WITH_UNIT (LENGTH_MEASURE( 1.000000000000000082E-05 ), #150, 'distance_accuracy_value', 'NONE');
#13 = VERTEX_POINT ( 'NONE', #212 ) ;
#14 = EDGE_CURVE ( 'NONE', #91, #2, #105, .T. ) ;
#15 = DIRECTION ( 'NONE',  ( -7.228014483236695816E-17, -1.000000000000000000, 0.0000000000000000000 ) ) ;
#16 = ORIENTED_EDGE ( 'NONE', *, *, #182, .F. ) ;
#17 = DIRECTION ( 'NONE',  ( 1.000000000000000000, -7.228014483236695816E-17, 0.0000000000000000000 ) ) ;
#18 = APPLICATION_CONTEXT ( 'automotive_design' ) ;
#19 = APPLICATION_CONTEXT ( 'automotive_design' ) ;
#20 = DIRECTION ( 'NONE',  ( -1.000000000000000000, 7.228014483236695816E-17, -0.0000000000000000000 ) ) ;
#21 = AXIS2_PLACEMENT_3D ( 'NONE', #115, #134, #184 ) ;
#22 = PRODUCT_DEFINITION_SHAPE ( 'NONE', 'NONE',  #37 ) ;
#23 = COLOUR_RGB ( '',0.7921568627450980005, 0.8196078431372548767, 0.9333333333333333481 ) ;
#24 = AXIS2_PLACEMENT_3D ( 'NONE', #176, #4, #39 ) ;
#25 = COLOUR_RGB ( '',0.7921568627450980005, 0.8196078431372548767, 0.9333333333333333481 ) ;
#26 = AXIS2_PLACEMENT_3D ( 'NONE', #32, #79, #136 ) ;
#27 = ORIENTED_EDGE ( 'NONE', *, *, #200, .T. ) ;
#28 = FACE_OUTER_BOUND ( 'NONE', #38, .T. ) ;
#29 = CARTESIAN_POINT ( 'NONE',  ( 48.00000000000000000, -2.804952123438650968, 0.0000000000000000000 ) ) ;
#30 = SURFACE_STYLE_USAGE ( .BOTH. , #199 ) ;
#31 = LINE ( 'NONE', #94, #6 ) ;
#32 = CARTESIAN_POINT ( 'NONE',  ( 48.00000000000000000, -2.804952123438650968, 0.0000000000000000000 ) ) ;
#33 = DIRECTION ( 'NONE',  ( -1.000000000000000000, 7.228014483236695816E-17, -0.0000000000000000000 ) ) ;
#34 = EDGE_CURVE ( 'NONE', #188, #10, #55, .T. ) ;
#35 = FACE_OUTER_BOUND ( 'NONE', #69, .T. ) ;
#36 = DIRECTION ( 'NONE',  ( -7.228014483236695816E-17, -1.000000000000000000, 0.0000000000000000000 ) ) ;
#37 = PRODUCT_DEFINITION ( 'UNKNOWN', '', #47, #66 ) ;
#38 = EDGE_LOOP ( 'NONE', ( #109, #48 ) ) ;
#39 = DIRECTION ( 'NONE',  ( 1.000000000000000000, 0.0000000000000000000, 0.0000000000000000000 ) ) ;
#40 = SURFACE_STYLE_USAGE ( .BOTH. , #178 ) ;
#41 = ADVANCED_FACE ( 'NONE', ( #191 ), #213, .T. ) ;
#42 = AXIS2_PLACEMENT_3D ( 'NONE', #141, #122, #36 ) ;
#43 = FILL_AREA_STYLE ('',( #104 ) ) ;
#44 = EDGE_LOOP ( 'NONE', ( #113, #156 ) ) ;
#45 = CONICAL_SURFACE ( 'NONE', #139, 17.40000000000000213, 0.1315279213535115455 ) ;
#46 = EDGE_CURVE ( 'NONE', #188, #13, #128, .T. ) ;
#47 = PRODUCT_DEFINITION_FORMATION_WITH_SPECIFIED_SOURCE ( 'ANY', '', #116, .NOT_KNOWN. ) ;
#48 = ORIENTED_EDGE ( 'NONE', *, *, #131, .T. ) ;
#49 = ORIENTED_EDGE ( 'NONE', *, *, #46, .F. ) ;
#50 =( NAMED_UNIT ( * ) PLANE_ANGLE_UNIT ( ) SI_UNIT ( $, .RADIAN. ) );
#51 = DIRECTION ( 'NONE',  ( 0.0000000000000000000, -1.000000000000000000, 0.0000000000000000000 ) ) ;
#52 = ORIENTED_EDGE ( 'NONE', *, *, #159, .T. ) ;
#53 = DIRECTION ( 'NONE',  ( -1.000000000000000000, 7.228014483236695816E-17, 0.0000000000000000000 ) ) ;
#54 = ORIENTED_EDGE ( 'NONE', *, *, #131, .F. ) ;
#55 = LINE ( 'NONE', #168, #9 ) ;
#56 = PRODUCT_CONTEXT ( 'NONE', #19, 'mechanical' ) ;
#57 = EDGE_CURVE ( 'NONE', #75, #91, #31, .T. ) ;
#58 = ORIENTED_EDGE ( 'NONE', *, *, #207, .T. ) ;
#59 = PRODUCT_RELATED_PRODUCT_CATEGORY ( 'part', '', ( #116 ) ) ;
#60 = EDGE_LOOP ( 'NONE', ( #49, #63 ) ) ;
#61 = VERTEX_POINT ( 'NONE', #117 ) ;
#62 = CIRCLE ( 'NONE', #211, 17.40000000000000213 ) ;
#63 = ORIENTED_EDGE ( 'NONE', *, *, #200, .F. ) ;
#64 = MANIFOLD_SOLID_BREP ( 'Revolve1', #107 ) ;
#65 = AXIS2_PLACEMENT_3D ( 'NONE', #1, #121, #189 ) ;
#66 = PRODUCT_DEFINITION_CONTEXT ( 'detailed design', #18, 'design' ) ;
#67 =( GEOMETRIC_REPRESENTATION_CONTEXT ( 3 ) GLOBAL_UNCERTAINTY_ASSIGNED_CONTEXT ( ( #77 ) ) GLOBAL_UNIT_ASSIGNED_CONTEXT ( ( #74, #144, #126 ) ) REPRESENTATION_CONTEXT ( 'NONE', 'WORKASPACE' ) );
#68 = AXIS2_PLACEMENT_3D ( 'NONE', #29, #33, #51 ) ;
#69 = EDGE_LOOP ( 'NONE', ( #8, #16, #52, #148 ) ) ;
#70 = EDGE_LOOP ( 'NONE', ( #76, #152 ) ) ;
#71 = APPLICATION_PROTOCOL_DEFINITION ( 'draft international standard', 'automotive_design', 1998, #18 ) ;
#72 = PRESENTATION_STYLE_ASSIGNMENT (( #40 ) ) ;
#73 = DIRECTION ( 'NONE',  ( 0.0000000000000000000, -1.000000000000000000, 0.0000000000000000000 ) ) ;
#74 =( LENGTH_UNIT ( ) NAMED_UNIT ( * ) SI_UNIT ( .MILLI., .METRE. ) );
#75 = VERTEX_POINT ( 'NONE', #154 ) ;
#76 = ORIENTED_EDGE ( 'NONE', *, *, #164, .F. ) ;
#77 = UNCERTAINTY_MEASURE_WITH_UNIT (LENGTH_MEASURE( 1.000000000000000082E-05 ), #74, 'distance_accuracy_value', 'NONE');
#78 =( GEOMETRIC_REPRESENTATION_CONTEXT ( 3 ) GLOBAL_UNCERTAINTY_ASSIGNED_CONTEXT ( ( #12 ) ) GLOBAL_UNIT_ASSIGNED_CONTEXT ( ( #150, #50, #120 ) ) REPRESENTATION_CONTEXT ( 'NONE', 'WORKASPACE' ) );
#79 = DIRECTION ( 'NONE',  ( -1.000000000000000000, 7.228014483236695816E-17, -0.0000000000000000000 ) ) ;
#80 = DIRECTION ( 'NONE',  ( -1.000000000000000000, 7.228014483236695816E-17, -0.0000000000000000000 ) ) ;
#81 = CIRCLE ( 'NONE', #42, 19.05000000000000071 ) ;
#82 = DIRECTION ( 'NONE',  ( -7.228014483236697048E-17, -1.000000000000000000, 0.0000000000000000000 ) ) ;
#83 = DIRECTION ( 'NONE',  ( 7.228014483236695816E-17, 1.000000000000000000, 0.0000000000000000000 ) ) ;
#84 = VECTOR ( 'NONE', #86, 999.9999999999998863 ) ;
#85 = DIRECTION ( 'NONE',  ( 0.0000000000000000000, -1.000000000000000000, 0.0000000000000000000 ) ) ;
#86 = DIRECTION ( 'NONE',  ( -0.9913626655951605082, -0.1311490193026930151, 0.0000000000000000000 ) ) ;
#87 = FACE_BOUND ( 'NONE', #70, .T. ) ;
#88 = CIRCLE ( 'NONE', #100, 11.05000000000000249 ) ;
#89 = CARTESIAN_POINT ( 'NONE',  ( 48.00000000000000000, -2.804952123438650968, 0.0000000000000000000 ) ) ;
#90 = ADVANCED_BREP_SHAPE_REPRESENTATION ( 'CR 1.5''''''''x1''''''''', ( #64, #24 ), #67 ) ;
#91 = VERTEX_POINT ( 'NONE', #151 ) ;
#92 = AXIS2_PLACEMENT_3D ( 'NONE', #201, #80, #97 ) ;
#93 = DIRECTION ( 'NONE',  ( -0.9913626655951605082, -0.1311490193026929874, 0.0000000000000000000 ) ) ;
#94 = CARTESIAN_POINT ( 'NONE',  ( 0.0000000000000000000, 14.59504787656135427, 2.130885430516394891E-15 ) ) ;
#95 = ORIENTED_EDGE ( 'NONE', *, *, #46, .T. ) ;
#96 = CONICAL_SURFACE ( 'NONE', #65, 17.40000000000000213, 0.1315279213535115455 ) ;
#97 = DIRECTION ( 'NONE',  ( -7.228014483236695816E-17, -1.000000000000000000, 0.0000000000000000000 ) ) ;
#98 = CARTESIAN_POINT ( 'NONE',  ( 48.00000000000000000, -13.85495212343865390, 0.0000000000000000000 ) ) ;
#99 = ADVANCED_FACE ( 'NONE', ( #35 ), #45, .F. ) ;
#100 = AXIS2_PLACEMENT_3D ( 'NONE', #202, #173, #102 ) ;
#101 = ORIENTED_EDGE ( 'NONE', *, *, #34, .F. ) ;
#102 = DIRECTION ( 'NONE',  ( 0.0000000000000000000, -1.000000000000000000, 0.0000000000000000000 ) ) ;
#103 = ADVANCED_FACE ( 'NONE', ( #194 ), #96, .F. ) ;
#104 = FILL_AREA_STYLE_COLOUR ( '', #23 ) ;
#105 = CIRCLE ( 'NONE', #169, 17.40000000000000213 ) ;
#106 = CARTESIAN_POINT ( 'NONE',  ( 48.00000000000000000, 9.895047876561351430, 1.555301434917138827E-15 ) ) ;
#107 = CLOSED_SHELL ( 'NONE', ( #103, #5, #41, #140, #99, #124 ) ) ;
#108 = DIRECTION ( 'NONE',  ( -1.000000000000000000, 7.228014483236695816E-17, -0.0000000000000000000 ) ) ;
#109 = ORIENTED_EDGE ( 'NONE', *, *, #112, .T. ) ;
#110 = ORIENTED_EDGE ( 'NONE', *, *, #118, .F. ) ;
#111 = ORIENTED_EDGE ( 'NONE', *, *, #112, .F. ) ;
#112 = EDGE_CURVE ( 'NONE', #10, #61, #81, .T. ) ;
#113 = ORIENTED_EDGE ( 'NONE', *, *, #182, .T. ) ;
#114 = LINE ( 'NONE', #106, #123 ) ;
#115 = CARTESIAN_POINT ( 'NONE',  ( 48.00000000000000000, -2.804952123438650968, 0.0000000000000000000 ) ) ;
#116 = PRODUCT ( 'CR 1.5''''''''x1''''''''', 'CR 1.5''''''''x1''''''''', '', ( #56 ) ) ;
#117 = CARTESIAN_POINT ( 'NONE',  ( -1.376936759056590631E-15, 16.24504787656135818, 2.332952152375708043E-15 ) ) ;
#118 = EDGE_CURVE ( 'NONE', #75, #119, #88, .T. ) ;
#119 = VERTEX_POINT ( 'NONE', #98 ) ;
#120 =( NAMED_UNIT ( * ) SI_UNIT ( $, .STERADIAN. ) SOLID_ANGLE_UNIT ( ) );
#121 = DIRECTION ( 'NONE',  ( -1.000000000000000000, 7.228014483236695816E-17, -0.0000000000000000000 ) ) ;
#122 = DIRECTION ( 'NONE',  ( -1.000000000000000000, 7.228014483236695816E-17, -0.0000000000000000000 ) ) ;
#123 = VECTOR ( 'NONE', #162, 999.9999999999998863 ) ;
#124 = ADVANCED_FACE ( 'NONE', ( #87, #28 ), #138, .F. ) ;
#125 =( NAMED_UNIT ( * ) PLANE_ANGLE_UNIT ( ) SI_UNIT ( $, .RADIAN. ) );
#126 =( NAMED_UNIT ( * ) SI_UNIT ( $, .STERADIAN. ) SOLID_ANGLE_UNIT ( ) );
#127 = FACE_BOUND ( 'NONE', #44, .T. ) ;
#128 = CIRCLE ( 'NONE', #68, 12.70000000000000284 ) ;
#129 =( NAMED_UNIT ( * ) SI_UNIT ( $, .STERADIAN. ) SOLID_ANGLE_UNIT ( ) );
#130 = CARTESIAN_POINT ( 'NONE',  ( -1.376936759056590631E-15, -21.85495212343865035, 0.0000000000000000000 ) ) ;
#131 = EDGE_CURVE ( 'NONE', #61, #10, #203, .T. ) ;
#132 = FILL_AREA_STYLE ('',( #11 ) ) ;
#133 = CARTESIAN_POINT ( 'NONE',  ( -1.257674520083185341E-15, -2.804952123438647860, 0.0000000000000000000 ) ) ;
#134 = DIRECTION ( 'NONE',  ( -1.000000000000000000, 7.228014483236695816E-17, -0.0000000000000000000 ) ) ;
#135 = PRESENTATION_STYLE_ASSIGNMENT (( #30 ) ) ;
#136 = DIRECTION ( 'NONE',  ( 0.0000000000000000000, -1.000000000000000000, 0.0000000000000000000 ) ) ;
#137 = EDGE_LOOP ( 'NONE', ( #163, #27, #198, #54 ) ) ;
#138 = PLANE ( 'NONE',  #192 ) ;
#139 = AXIS2_PLACEMENT_3D ( 'NONE', #155, #3, #82 ) ;
#140 = ADVANCED_FACE ( 'NONE', ( #209, #127 ), #187, .F. ) ;
#141 = CARTESIAN_POINT ( 'NONE',  ( -1.376936759056590631E-15, -2.804952123438647860, 0.0000000000000000000 ) ) ;
#142 = EDGE_LOOP ( 'NONE', ( #110, #195, #147, #145 ) ) ;
#143 = SURFACE_STYLE_FILL_AREA ( #43 ) ;
#144 =( NAMED_UNIT ( * ) PLANE_ANGLE_UNIT ( ) SI_UNIT ( $, .RADIAN. ) );
#145 = ORIENTED_EDGE ( 'NONE', *, *, #159, .F. ) ;
#146 = APPLICATION_PROTOCOL_DEFINITION ( 'draft international standard', 'automotive_design', 1998, #19 ) ;
#147 = ORIENTED_EDGE ( 'NONE', *, *, #14, .T. ) ;
#148 = ORIENTED_EDGE ( 'NONE', *, *, #164, .T. ) ;
#149 = AXIS2_PLACEMENT_3D ( 'NONE', #89, #177, #73 ) ;
#150 =( LENGTH_UNIT ( ) NAMED_UNIT ( * ) SI_UNIT ( .MILLI., .METRE. ) );
#151 = CARTESIAN_POINT ( 'NONE',  ( 0.0000000000000000000, 14.59504787656135427, 2.130885430516394891E-15 ) ) ;
#152 = ORIENTED_EDGE ( 'NONE', *, *, #14, .F. ) ;
#153 = SURFACE_STYLE_FILL_AREA ( #132 ) ;
#154 = CARTESIAN_POINT ( 'NONE',  ( 48.00000000000000000, 8.245047876561351075, 1.742060071787110480E-15 ) ) ;
#155 = CARTESIAN_POINT ( 'NONE',  ( -1.257674520083185341E-15, -2.804952123438647860, 0.0000000000000000000 ) ) ;
#156 = ORIENTED_EDGE ( 'NONE', *, *, #118, .T. ) ;
#157 =( GEOMETRIC_REPRESENTATION_CONTEXT ( 3 ) GLOBAL_UNCERTAINTY_ASSIGNED_CONTEXT ( ( #160 ) ) GLOBAL_UNIT_ASSIGNED_CONTEXT ( ( #7, #125, #129 ) ) REPRESENTATION_CONTEXT ( 'NONE', 'WORKASPACE' ) );
#158 = CARTESIAN_POINT ( 'NONE',  ( 48.00000000000000000, -15.50495212343865425, 0.0000000000000000000 ) ) ;
#159 = EDGE_CURVE ( 'NONE', #119, #2, #193, .T. ) ;
#160 = UNCERTAINTY_MEASURE_WITH_UNIT (LENGTH_MEASURE( 1.000000000000000082E-05 ), #7, 'distance_accuracy_value', 'NONE');
#161 = CONICAL_SURFACE ( 'NONE', #26, 12.70000000000000284, 0.1315279213535115177 ) ;
#162 = DIRECTION ( 'NONE',  ( -0.9913626655951605082, 0.1311490193026931539, 1.606112267003575470E-17 ) ) ;
#163 = ORIENTED_EDGE ( 'NONE', *, *, #207, .F. ) ;
#164 = EDGE_CURVE ( 'NONE', #2, #91, #62, .T. ) ;
#165 = PRESENTATION_LAYER_ASSIGNMENT (  '', '', ( #181 ) ) ;
#166 = AXIS2_PLACEMENT_3D ( 'NONE', #206, #108, #85 ) ;
#167 = SHAPE_DEFINITION_REPRESENTATION ( #22, #90 ) ;
#168 = CARTESIAN_POINT ( 'NONE',  ( 48.00000000000000000, -15.50495212343865425, 0.0000000000000000000 ) ) ;
#169 = AXIS2_PLACEMENT_3D ( 'NONE', #133, #171, #196 ) ;
#170 = CIRCLE ( 'NONE', #166, 11.05000000000000249 ) ;
#171 = DIRECTION ( 'NONE',  ( -1.000000000000000000, 7.228014483236695816E-17, -0.0000000000000000000 ) ) ;
#172 = FACE_OUTER_BOUND ( 'NONE', #186, .T. ) ;
#173 = DIRECTION ( 'NONE',  ( -1.000000000000000000, 7.228014483236695816E-17, -0.0000000000000000000 ) ) ;
#174 = CARTESIAN_POINT ( 'NONE',  ( 5.963111948670269457E-17, 16.24504787656135463, 0.0000000000000000000 ) ) ;
#175 = CARTESIAN_POINT ( 'NONE',  ( -2.515349040166370681E-15, -20.20495212343864821, 0.0000000000000000000 ) ) ;
#176 = CARTESIAN_POINT ( 'NONE',  ( 0.0000000000000000000, 0.0000000000000000000, 0.0000000000000000000 ) ) ;
#177 = DIRECTION ( 'NONE',  ( -1.000000000000000000, 7.228014483236695816E-17, -0.0000000000000000000 ) ) ;
#178 = SURFACE_SIDE_STYLE ('',( #143 ) ) ;
#179 = CIRCLE ( 'NONE', #149, 12.70000000000000284 ) ;
#180 = PRESENTATION_LAYER_ASSIGNMENT (  '', '', ( #197 ) ) ;
#181 = STYLED_ITEM ( 'NONE', ( #72 ), #90 ) ;
#182 = EDGE_CURVE ( 'NONE', #119, #75, #170, .T. ) ;
#183 = CARTESIAN_POINT ( 'NONE',  ( -2.515349040166370681E-15, -20.20495212343864821, 0.0000000000000000000 ) ) ;
#184 = DIRECTION ( 'NONE',  ( 0.0000000000000000000, -1.000000000000000000, 0.0000000000000000000 ) ) ;
#185 = DIRECTION ( 'NONE',  ( -0.9913626655951605082, 0.1311490193026931816, 1.606112267003575778E-17 ) ) ;
#186 = EDGE_LOOP ( 'NONE', ( #95, #58, #111, #101 ) ) ;
#187 = PLANE ( 'NONE',  #210 ) ;
#188 = VERTEX_POINT ( 'NONE', #158 ) ;
#189 = DIRECTION ( 'NONE',  ( -7.228014483236697048E-17, -1.000000000000000000, 0.0000000000000000000 ) ) ;
#190 = MECHANICAL_DESIGN_GEOMETRIC_PRESENTATION_REPRESENTATION (  '', ( #197 ), #78 ) ;
#191 = FACE_OUTER_BOUND ( 'NONE', #137, .T. ) ;
#192 = AXIS2_PLACEMENT_3D ( 'NONE', #174, #17, #83 ) ;
#193 = LINE ( 'NONE', #175, #84 ) ;
#194 = FACE_OUTER_BOUND ( 'NONE', #142, .T. ) ;
#195 = ORIENTED_EDGE ( 'NONE', *, *, #57, .T. ) ;
#196 = DIRECTION ( 'NONE',  ( -7.228014483236697048E-17, -1.000000000000000000, 0.0000000000000000000 ) ) ;
#197 = STYLED_ITEM ( 'NONE', ( #135 ), #64 ) ;
#198 = ORIENTED_EDGE ( 'NONE', *, *, #34, .T. ) ;
#199 = SURFACE_SIDE_STYLE ('',( #153 ) ) ;
#200 = EDGE_CURVE ( 'NONE', #13, #188, #179, .T. ) ;
#201 = CARTESIAN_POINT ( 'NONE',  ( -1.376936759056590631E-15, -2.804952123438647860, 0.0000000000000000000 ) ) ;
#202 = CARTESIAN_POINT ( 'NONE',  ( 48.00000000000000000, -2.804952123438650968, 0.0000000000000000000 ) ) ;
#203 = CIRCLE ( 'NONE', #92, 19.05000000000000071 ) ;
#204 = CARTESIAN_POINT ( 'NONE',  ( -1.257674520083185341E-15, -2.804952123438647860, 0.0000000000000000000 ) ) ;
#205 = MECHANICAL_DESIGN_GEOMETRIC_PRESENTATION_REPRESENTATION (  '', ( #181 ), #157 ) ;
#206 = CARTESIAN_POINT ( 'NONE',  ( 48.00000000000000000, -2.804952123438650968, 0.0000000000000000000 ) ) ;
#207 = EDGE_CURVE ( 'NONE', #13, #61, #114, .T. ) ;
#208 = DIRECTION ( 'NONE',  ( -7.228014483236697048E-17, -1.000000000000000000, 0.0000000000000000000 ) ) ;
#209 = FACE_OUTER_BOUND ( 'NONE', #60, .T. ) ;
#210 = AXIS2_PLACEMENT_3D ( 'NONE', #214, #53, #15 ) ;
#211 = AXIS2_PLACEMENT_3D ( 'NONE', #204, #20, #208 ) ;
#212 = CARTESIAN_POINT ( 'NONE',  ( 48.00000000000000000, 9.895047876561351430, 1.944126793646423632E-15 ) ) ;
#213 = CONICAL_SURFACE ( 'NONE', #21, 12.70000000000000284, 0.1315279213535115177 ) ;
#214 = CARTESIAN_POINT ( 'NONE',  ( 48.00000000000000000, 9.895047876561351430, 0.0000000000000000000 ) ) ;
ENDSEC;
END-ISO-10303-21;
