ISO-10303-21;
HEADER;
/****************************************************************
 * Generated by software with PDE/Lib inside                    *
 * PDElib Version v51a, created Thu 12/14/2006                  *
 * International Technegroup Inc. (www.iti-oh.com)              *
 ****************************************************************/
FILE_DESCRIPTION((''),'2;1');
FILE_NAME('T:\\Arbeitspl\S\dtze\\Aushilfe\\KPeters\\3D\\Steps 08_10\\18500\\18500050X.stp','2010-08-11T12:15:30',('thilbrands'),(''),'Autodesk Inventor 2008','Autodesk Inventor 2008','');
FILE_SCHEMA(('AUTOMOTIVE_DESIGN { 1 0 10303 214 1 1 1 1 }'));
ENDSEC;
DATA;
#5=APPLICATION_CONTEXT('automotive design');
#6=APPLICATION_PROTOCOL_DEFINITION('International Standard','automotive_design',2001,#5);
#7=PRODUCT_CONTEXT('',#5,'mechanical');
#8=PRODUCT('185000251','185000251',$,(#7));
#9=PRODUCT_RELATED_PRODUCT_CATEGORY('part',$,(#8));
#10=PRODUCT_DEFINITION_FORMATION('',$,#8);
#11=PRODUCT_DEFINITION_CONTEXT('part definition',#5,'design');
#12=PRODUCT_DEFINITION('',$,#10,#11);
#18=(NAMED_UNIT(*)PLANE_ANGLE_UNIT()SI_UNIT($,.RADIAN.));
#19=DIMENSIONAL_EXPONENTS(0.0,0.0,0.0,0.0,0.0,0.0,0.0);
#20=PLANE_ANGLE_MEASURE_WITH_UNIT(PLANE_ANGLE_MEASURE(0.017453292500000),#18);
#24=(CONVERSION_BASED_UNIT('DEGREE',#20)NAMED_UNIT(#19)PLANE_ANGLE_UNIT());
#28=(NAMED_UNIT(*)SI_UNIT($,.STERADIAN.)SOLID_ANGLE_UNIT());
#32=(LENGTH_UNIT()NAMED_UNIT(*)SI_UNIT(.MILLI.,.METRE.));
#34=UNCERTAINTY_MEASURE_WITH_UNIT(LENGTH_MEASURE(0.010000000000000),#32,'DISTANCE_ACCURACY_VALUE','');
#36=(GEOMETRIC_REPRESENTATION_CONTEXT(3)GLOBAL_UNCERTAINTY_ASSIGNED_CONTEXT((#34))GLOBAL_UNIT_ASSIGNED_CONTEXT((#24,#28,#32))REPRESENTATION_CONTEXT('None','None'));
#37=AXIS2_PLACEMENT_3D('',#38,#39,#40);
#38=CARTESIAN_POINT('',(0.0,0.0,0.0));
#39=DIRECTION('',(0.0,0.0,1.0));
#40=DIRECTION('',(1.0,0.0,0.0));
#41=SHAPE_REPRESENTATION('',(#37),#36);
#42=PRODUCT_DEFINITION_SHAPE('','',#12);
#43=SHAPE_DEFINITION_REPRESENTATION(#42,#41);
#49=(NAMED_UNIT(*)PLANE_ANGLE_UNIT()SI_UNIT($,.RADIAN.));
#50=DIMENSIONAL_EXPONENTS(0.0,0.0,0.0,0.0,0.0,0.0,0.0);
#51=PLANE_ANGLE_MEASURE_WITH_UNIT(PLANE_ANGLE_MEASURE(0.017453292500000),#49);
#55=(CONVERSION_BASED_UNIT('DEGREE',#51)NAMED_UNIT(#50)PLANE_ANGLE_UNIT());
#59=(NAMED_UNIT(*)SI_UNIT($,.STERADIAN.)SOLID_ANGLE_UNIT());
#63=(LENGTH_UNIT()NAMED_UNIT(*)SI_UNIT(.MILLI.,.METRE.));
#65=UNCERTAINTY_MEASURE_WITH_UNIT(LENGTH_MEASURE(0.000001000000000),#63,'DISTANCE_ACCURACY_VALUE','');
#67=(GEOMETRIC_REPRESENTATION_CONTEXT(3)GLOBAL_UNCERTAINTY_ASSIGNED_CONTEXT((#65))GLOBAL_UNIT_ASSIGNED_CONTEXT((#55,#59,#63))REPRESENTATION_CONTEXT('','3D'));
#68=CARTESIAN_POINT('',(-6.500000000000002,0.0,0.0));
#69=DIRECTION('',(1.0,0.0,0.0));
#70=DIRECTION('',(0.0,1.0,0.0));
#71=AXIS2_PLACEMENT_3D('',#68,#69,#70);
#72=CYLINDRICAL_SURFACE('',#71,25.000000000000004);
#73=CARTESIAN_POINT('',(-13.000000000000004,25.0,0.0));
#74=VERTEX_POINT('',#73);
#75=CARTESIAN_POINT('',(-13.000000000000004,0.0,0.0));
#76=DIRECTION('',(1.0,0.0,0.0));
#77=DIRECTION('',(0.0,1.0,0.0));
#78=AXIS2_PLACEMENT_3D('',#75,#76,#77);
#79=CIRCLE('',#78,25.0);
#80=EDGE_CURVE('',#74,#74,#79,.T.);
#81=ORIENTED_EDGE('',*,*,#80,.F.);
#82=EDGE_LOOP('',(#81));
#83=FACE_OUTER_BOUND('',#82,.T.);
#84=CARTESIAN_POINT('',(0.0,25.000000000000007,0.0));
#85=VERTEX_POINT('',#84);
#86=CARTESIAN_POINT('',(0.0,0.0,0.0));
#87=DIRECTION('',(1.0,0.0,0.0));
#88=DIRECTION('',(0.0,1.0,0.0));
#89=AXIS2_PLACEMENT_3D('',#86,#87,#88);
#90=CIRCLE('',#89,25.000000000000007);
#91=EDGE_CURVE('',#85,#85,#90,.T.);
#92=ORIENTED_EDGE('',*,*,#91,.T.);
#93=EDGE_LOOP('',(#92));
#94=FACE_BOUND('',#93,.T.);
#95=ADVANCED_FACE('',(#83,#94),#72,.F.);
#96=CARTESIAN_POINT('',(-13.000000000000004,25.623534585836623,0.0));
#97=DIRECTION('',(-1.0,0.0,0.0));
#98=DIRECTION('',(0.0,0.0,1.0));
#99=AXIS2_PLACEMENT_3D('',#96,#97,#98);
#100=PLANE('',#99);
#101=CARTESIAN_POINT('',(-13.0,26.247069171673253,0.0));
#102=VERTEX_POINT('',#101);
#103=CARTESIAN_POINT('',(-13.0,0.0,0.0));
#104=DIRECTION('',(1.0,0.0,0.0));
#105=DIRECTION('',(0.0,1.0,0.0));
#106=AXIS2_PLACEMENT_3D('',#103,#104,#105);
#107=CIRCLE('',#106,26.247069171673253);
#108=EDGE_CURVE('',#102,#102,#107,.T.);
#109=ORIENTED_EDGE('',*,*,#108,.F.);
#110=EDGE_LOOP('',(#109));
#111=FACE_OUTER_BOUND('',#110,.T.);
#112=ORIENTED_EDGE('',*,*,#80,.T.);
#113=EDGE_LOOP('',(#112));
#114=FACE_BOUND('',#113,.T.);
#115=ADVANCED_FACE('',(#111,#114),#100,.T.);
#116=CARTESIAN_POINT('',(-12.200000000000003,0.0,0.0));
#117=DIRECTION('',(1.0,0.0,0.0));
#118=DIRECTION('',(0.0,0.0,-1.0));
#119=AXIS2_PLACEMENT_3D('',#116,#117,#118);
#120=TOROIDAL_SURFACE('',#119,26.247069171673253,0.800000000000014);
#121=CARTESIAN_POINT('',(-12.512584902791424,26.983473054435212,0.0));
#122=VERTEX_POINT('',#121);
#123=CARTESIAN_POINT('',(-12.512584902791424,0.0,0.0));
#124=DIRECTION('',(1.0,0.0,0.0));
#125=DIRECTION('',(0.0,1.0,0.0));
#126=AXIS2_PLACEMENT_3D('',#123,#124,#125);
#127=CIRCLE('',#126,26.983473054435212);
#128=EDGE_CURVE('',#122,#122,#127,.T.);
#129=ORIENTED_EDGE('',*,*,#128,.F.);
#130=EDGE_LOOP('',(#129));
#131=FACE_OUTER_BOUND('',#130,.T.);
#132=ORIENTED_EDGE('',*,*,#108,.T.);
#133=EDGE_LOOP('',(#132));
#134=FACE_BOUND('',#133,.T.);
#135=ADVANCED_FACE('',(#131,#134),#120,.T.);
#136=CARTESIAN_POINT('',(-12.321853774302149,0.0,0.0));
#137=DIRECTION('',(1.0,0.0,0.0));
#138=DIRECTION('',(0.0,1.0,0.0));
#139=AXIS2_PLACEMENT_3D('',#136,#137,#138);
#140=CONICAL_SURFACE('',#139,27.064433615146143,22.999999999999076);
#141=CARTESIAN_POINT('',(-12.131122645812873,27.145394175857078,0.0));
#142=VERTEX_POINT('',#141);
#143=CARTESIAN_POINT('',(-12.131122645812873,0.0,0.0));
#144=DIRECTION('',(1.0,0.0,0.0));
#145=DIRECTION('',(0.0,1.0,0.0));
#146=AXIS2_PLACEMENT_3D('',#143,#144,#145);
#147=CIRCLE('',#146,27.145394175857078);
#148=EDGE_CURVE('',#142,#142,#147,.T.);
#149=ORIENTED_EDGE('',*,*,#148,.F.);
#150=EDGE_LOOP('',(#149));
#151=FACE_OUTER_BOUND('',#150,.T.);
#152=ORIENTED_EDGE('',*,*,#128,.T.);
#153=EDGE_LOOP('',(#152));
#154=FACE_BOUND('',#153,.T.);
#155=ADVANCED_FACE('',(#151,#154),#140,.T.);
#156=CARTESIAN_POINT('',(-12.131122645812875,-3.594784E-015,29.354605824142929));
#157=CARTESIAN_POINT('',(-11.400000000000002,-3.556779E-015,29.044262673434833));
#158=CARTESIAN_POINT('',(-11.400000000000002,-3.459513E-015,28.250000000000000));
#159=CARTESIAN_POINT('',(-11.400000000000002,-3.362247E-015,27.455737326565167));
#160=CARTESIAN_POINT('',(-12.131122645812875,-3.324242E-015,27.145394175857071));
#161=CARTESIAN_POINT('',(-12.131122645812876,-29.354605824142926,29.354605824142919));
#162=CARTESIAN_POINT('',(-11.400000000000002,-29.044262673434829,29.044262673434826));
#163=CARTESIAN_POINT('',(-11.400000000000002,-28.249999999999996,28.249999999999989));
#164=CARTESIAN_POINT('',(-11.400000000000002,-27.455737326565167,27.455737326565153));
#165=CARTESIAN_POINT('',(-12.131122645812876,-27.145394175857067,27.145394175857060));
#166=CARTESIAN_POINT('',(-12.131122645812875,-29.354605824142929,-3.594784E-015));
#167=CARTESIAN_POINT('',(-11.400000000000002,-29.044262673434833,-3.556779E-015));
#168=CARTESIAN_POINT('',(-11.400000000000002,-28.250000000000000,-3.459513E-015));
#169=CARTESIAN_POINT('',(-11.400000000000002,-27.455737326565167,-3.362247E-015));
#170=CARTESIAN_POINT('',(-12.131122645812875,-27.145394175857071,-3.324242E-015));
#171=CARTESIAN_POINT('',(-12.131122645812876,-29.354605824142919,-29.354605824142926));
#172=CARTESIAN_POINT('',(-11.400000000000002,-29.044262673434826,-29.044262673434829));
#173=CARTESIAN_POINT('',(-11.400000000000002,-28.249999999999989,-28.249999999999996));
#174=CARTESIAN_POINT('',(-11.400000000000002,-27.455737326565153,-27.455737326565167));
#175=CARTESIAN_POINT('',(-12.131122645812876,-27.145394175857060,-27.145394175857067));
#176=CARTESIAN_POINT('',(-12.131122645812875,3.594784E-015,-29.354605824142929));
#177=CARTESIAN_POINT('',(-11.400000000000002,3.556779E-015,-29.044262673434833));
#178=CARTESIAN_POINT('',(-11.400000000000002,3.459513E-015,-28.250000000000000));
#179=CARTESIAN_POINT('',(-11.400000000000002,3.362247E-015,-27.455737326565167));
#180=CARTESIAN_POINT('',(-12.131122645812875,3.324242E-015,-27.145394175857071));
#181=CARTESIAN_POINT('',(-12.131122645812876,29.354605824142926,-29.354605824142919));
#182=CARTESIAN_POINT('',(-11.400000000000002,29.044262673434829,-29.044262673434826));
#183=CARTESIAN_POINT('',(-11.400000000000002,28.249999999999996,-28.249999999999989));
#184=CARTESIAN_POINT('',(-11.400000000000002,27.455737326565167,-27.455737326565153));
#185=CARTESIAN_POINT('',(-12.131122645812876,27.145394175857067,-27.145394175857060));
#186=CARTESIAN_POINT('',(-12.131122645812875,29.354605824142929,3.594784E-015));
#187=CARTESIAN_POINT('',(-11.400000000000002,29.044262673434833,3.556779E-015));
#188=CARTESIAN_POINT('',(-11.400000000000002,28.250000000000000,3.459513E-015));
#189=CARTESIAN_POINT('',(-11.400000000000002,27.455737326565167,3.362247E-015));
#190=CARTESIAN_POINT('',(-12.131122645812875,27.145394175857071,3.324242E-015));
#191=CARTESIAN_POINT('',(-12.131122645812876,29.354605824142919,29.354605824142926));
#192=CARTESIAN_POINT('',(-11.400000000000002,29.044262673434826,29.044262673434829));
#193=CARTESIAN_POINT('',(-11.400000000000002,28.249999999999989,28.249999999999996));
#194=CARTESIAN_POINT('',(-11.400000000000002,27.455737326565153,27.455737326565167));
#195=CARTESIAN_POINT('',(-12.131122645812876,27.145394175857060,27.145394175857067));
#196=CARTESIAN_POINT('',(-12.131122645812875,-3.594784E-015,29.354605824142929));
#197=CARTESIAN_POINT('',(-11.400000000000002,-3.556779E-015,29.044262673434833));
#198=CARTESIAN_POINT('',(-11.400000000000002,-3.459513E-015,28.250000000000000));
#199=CARTESIAN_POINT('',(-11.400000000000002,-3.362247E-015,27.455737326565167));
#200=CARTESIAN_POINT('',(-12.131122645812875,-3.324242E-015,27.145394175857071));
#208=(BOUNDED_SURFACE()B_SPLINE_SURFACE(2,2,((#156,#161,#166,#171,#176,#181,#186,#191,#196),(#157,#162,#167,#172,#177,#182,#187,#192,#197),(#158,#163,#168,#173,#178,#183,#188,#193,#198),(#159,#164,#169,#174,#179,#184,#189,#194,#199),(#160,#165,#170,#175,#180,#185,#190,#195,#200)),.UNSPECIFIED.,.F.,.T.,.U.)B_SPLINE_SURFACE_WITH_KNOTS((3,2,3),(3,2,2,2,3),(0.401425727958694,1.570796326794897,2.740166925631099),(0.0,1.570796326794897,3.141592653589793,4.712388980384690,6.283185307179586),.UNSPECIFIED.)GEOMETRIC_REPRESENTATION_ITEM()RATIONAL_B_SPLINE_SURFACE(((1.0,0.707106781186548,1.0,0.707106781186548,1.0,0.707106781186548,1.0,0.707106781186548,1.0),(0.833885822067166,0.589646319519012,0.833885822067166,0.589646319519012,0.833885822067166,0.589646319519012,0.833885822067166,0.589646319519012,0.833885822067166),(1.0,0.707106781186548,1.0,0.707106781186548,1.0,0.707106781186548,1.0,0.707106781186548,1.0),(0.833885822067166,0.589646319519012,0.833885822067166,0.589646319519012,0.833885822067166,0.589646319519012,0.833885822067166,0.589646319519012,0.833885822067166),(1.0,0.707106781186548,1.0,0.707106781186548,1.0,0.707106781186548,1.0,0.707106781186548,1.0)))REPRESENTATION_ITEM('')SURFACE());
#209=CARTESIAN_POINT('',(-12.131122645812875,29.354605824142933,0.0));
#210=VERTEX_POINT('',#209);
#211=CARTESIAN_POINT('',(-12.131122645812875,0.0,0.0));
#212=DIRECTION('',(1.0,0.0,0.0));
#213=DIRECTION('',(0.0,1.0,0.0));
#214=AXIS2_PLACEMENT_3D('',#211,#212,#213);
#215=CIRCLE('',#214,29.354605824142933);
#216=EDGE_CURVE('',#210,#210,#215,.T.);
#217=ORIENTED_EDGE('',*,*,#216,.F.);
#218=EDGE_LOOP('',(#217));
#219=FACE_OUTER_BOUND('',#218,.T.);
#220=ORIENTED_EDGE('',*,*,#148,.T.);
#221=EDGE_LOOP('',(#220));
#222=FACE_BOUND('',#221,.T.);
#223=ADVANCED_FACE('',(#219,#222),#208,.T.);
#224=CARTESIAN_POINT('',(-12.321853774302149,0.0,0.0));
#225=DIRECTION('',(-1.0,0.0,0.0));
#226=DIRECTION('',(0.0,1.0,0.0));
#227=AXIS2_PLACEMENT_3D('',#224,#225,#226);
#228=CONICAL_SURFACE('',#227,29.435566384853864,22.999999999999076);
#229=CARTESIAN_POINT('',(-12.512584902791426,29.516526945564795,0.0));
#230=VERTEX_POINT('',#229);
#231=CARTESIAN_POINT('',(-12.512584902791426,0.0,0.0));
#232=DIRECTION('',(1.0,0.0,0.0));
#233=DIRECTION('',(0.0,1.0,0.0));
#234=AXIS2_PLACEMENT_3D('',#231,#232,#233);
#235=CIRCLE('',#234,29.516526945564795);
#236=EDGE_CURVE('',#230,#230,#235,.T.);
#237=ORIENTED_EDGE('',*,*,#236,.F.);
#238=EDGE_LOOP('',(#237));
#239=FACE_OUTER_BOUND('',#238,.T.);
#240=ORIENTED_EDGE('',*,*,#216,.T.);
#241=EDGE_LOOP('',(#240));
#242=FACE_BOUND('',#241,.T.);
#243=ADVANCED_FACE('',(#239,#242),#228,.F.);
#244=CARTESIAN_POINT('',(-12.200000000000005,0.0,0.0));
#245=DIRECTION('',(1.0,0.0,0.0));
#246=DIRECTION('',(0.0,0.0,-1.0));
#247=AXIS2_PLACEMENT_3D('',#244,#245,#246);
#248=TOROIDAL_SURFACE('',#247,30.252930828326754,0.800000000000005);
#249=CARTESIAN_POINT('',(-13.000000000000004,30.252930828326754,0.0));
#250=VERTEX_POINT('',#249);
#251=CARTESIAN_POINT('',(-13.000000000000004,0.0,0.0));
#252=DIRECTION('',(1.0,0.0,0.0));
#253=DIRECTION('',(0.0,1.0,0.0));
#254=AXIS2_PLACEMENT_3D('',#251,#252,#253);
#255=CIRCLE('',#254,30.252930828326754);
#256=EDGE_CURVE('',#250,#250,#255,.T.);
#257=ORIENTED_EDGE('',*,*,#256,.F.);
#258=EDGE_LOOP('',(#257));
#259=FACE_OUTER_BOUND('',#258,.T.);
#260=ORIENTED_EDGE('',*,*,#236,.T.);
#261=EDGE_LOOP('',(#260));
#262=FACE_BOUND('',#261,.T.);
#263=ADVANCED_FACE('',(#259,#262),#248,.T.);
#264=CARTESIAN_POINT('',(-13.000000000000004,31.126465414163384,0.0));
#265=DIRECTION('',(-1.0,0.0,0.0));
#266=DIRECTION('',(0.0,0.0,1.0));
#267=AXIS2_PLACEMENT_3D('',#264,#265,#266);
#268=PLANE('',#267);
#269=CARTESIAN_POINT('',(-13.000000000000005,32.000000000000007,0.0));
#270=VERTEX_POINT('',#269);
#271=CARTESIAN_POINT('',(-13.000000000000005,0.0,0.0));
#272=DIRECTION('',(1.0,0.0,0.0));
#273=DIRECTION('',(0.0,1.0,0.0));
#274=AXIS2_PLACEMENT_3D('',#271,#272,#273);
#275=CIRCLE('',#274,32.000000000000007);
#276=EDGE_CURVE('',#270,#270,#275,.T.);
#277=ORIENTED_EDGE('',*,*,#276,.F.);
#278=EDGE_LOOP('',(#277));
#279=FACE_OUTER_BOUND('',#278,.T.);
#280=ORIENTED_EDGE('',*,*,#256,.T.);
#281=EDGE_LOOP('',(#280));
#282=FACE_BOUND('',#281,.T.);
#283=ADVANCED_FACE('',(#279,#282),#268,.T.);
#284=CARTESIAN_POINT('',(-11.855083015283887,0.0,0.0));
#285=DIRECTION('',(1.0,0.0,0.0));
#286=DIRECTION('',(0.0,1.0,0.0));
#287=AXIS2_PLACEMENT_3D('',#284,#285,#286);
#288=CYLINDRICAL_SURFACE('',#287,32.000000000000007);
#289=CARTESIAN_POINT('',(-10.710166030567770,32.000000000000007,0.0));
#290=VERTEX_POINT('',#289);
#291=CARTESIAN_POINT('',(-10.710166030567770,0.0,0.0));
#292=DIRECTION('',(1.0,0.0,0.0));
#293=DIRECTION('',(0.0,1.0,0.0));
#294=AXIS2_PLACEMENT_3D('',#291,#292,#293);
#295=CIRCLE('',#294,32.000000000000007);
#296=EDGE_CURVE('',#290,#290,#295,.T.);
#297=ORIENTED_EDGE('',*,*,#296,.F.);
#298=EDGE_LOOP('',(#297));
#299=FACE_OUTER_BOUND('',#298,.T.);
#300=ORIENTED_EDGE('',*,*,#276,.T.);
#301=EDGE_LOOP('',(#300));
#302=FACE_BOUND('',#301,.T.);
#303=ADVANCED_FACE('',(#299,#302),#288,.T.);
#304=CARTESIAN_POINT('',(-10.710166030567770,0.0,0.0));
#305=DIRECTION('',(1.0,0.0,0.0));
#306=DIRECTION('',(0.0,0.0,-1.0));
#307=AXIS2_PLACEMENT_3D('',#304,#305,#306);
#308=TOROIDAL_SURFACE('',#307,31.200000000000006,0.800000000000001);
#309=CARTESIAN_POINT('',(-9.958411933939043,31.473616114660537,0.0));
#310=VERTEX_POINT('',#309);
#311=CARTESIAN_POINT('',(-9.958411933939043,0.0,0.0));
#312=DIRECTION('',(1.0,0.0,0.0));
#313=DIRECTION('',(0.0,1.0,0.0));
#314=AXIS2_PLACEMENT_3D('',#311,#312,#313);
#315=CIRCLE('',#314,31.473616114660537);
#316=EDGE_CURVE('',#310,#310,#315,.T.);
#317=ORIENTED_EDGE('',*,*,#316,.F.);
#318=EDGE_LOOP('',(#317));
#319=FACE_OUTER_BOUND('',#318,.T.);
#320=ORIENTED_EDGE('',*,*,#296,.T.);
#321=EDGE_LOOP('',(#320));
#322=FACE_BOUND('',#321,.T.);
#323=ADVANCED_FACE('',(#319,#322),#308,.T.);
#324=CARTESIAN_POINT('',(-9.244875888798422,0.0,0.0));
#325=DIRECTION('',(-1.0,0.0,0.0));
#326=DIRECTION('',(0.0,1.0,0.0));
#327=AXIS2_PLACEMENT_3D('',#324,#325,#326);
#328=CONICAL_SURFACE('',#327,29.513191942669739,69.999999999999957);
#329=CARTESIAN_POINT('',(-8.531339843657804,27.552767770678933,0.0));
#330=VERTEX_POINT('',#329);
#331=CARTESIAN_POINT('',(-8.531339843657804,0.0,0.0));
#332=DIRECTION('',(1.0,0.0,0.0));
#333=DIRECTION('',(0.0,1.0,0.0));
#334=AXIS2_PLACEMENT_3D('',#331,#332,#333);
#335=CIRCLE('',#334,27.552767770678933);
#336=EDGE_CURVE('',#330,#330,#335,.T.);
#337=ORIENTED_EDGE('',*,*,#336,.F.);
#338=EDGE_LOOP('',(#337));
#339=FACE_OUTER_BOUND('',#338,.T.);
#340=ORIENTED_EDGE('',*,*,#316,.T.);
#341=EDGE_LOOP('',(#340));
#342=FACE_BOUND('',#341,.T.);
#343=ADVANCED_FACE('',(#339,#342),#328,.T.);
#344=CARTESIAN_POINT('',(-7.027831650400350,-3.245207E-015,26.499999999999993));
#345=CARTESIAN_POINT('',(-8.627831650400363,-3.245207E-015,26.499999999999989));
#346=CARTESIAN_POINT('',(-8.627831650400363,-3.441144E-015,28.100000000000005));
#347=CARTESIAN_POINT('',(-8.627831650400363,-3.637081E-015,29.700000000000017));
#348=CARTESIAN_POINT('',(-7.027831650400350,-3.637081E-015,29.700000000000017));
#349=CARTESIAN_POINT('',(-7.027831650400350,-26.499999999999993,26.499999999999982));
#350=CARTESIAN_POINT('',(-8.627831650400363,-26.499999999999989,26.499999999999982));
#351=CARTESIAN_POINT('',(-8.627831650400363,-28.100000000000001,28.099999999999994));
#352=CARTESIAN_POINT('',(-8.627831650400363,-29.700000000000014,29.700000000000006));
#353=CARTESIAN_POINT('',(-7.027831650400350,-29.700000000000014,29.700000000000006));
#354=CARTESIAN_POINT('',(-7.027831650400350,-26.499999999999993,-3.245207E-015));
#355=CARTESIAN_POINT('',(-8.627831650400363,-26.499999999999989,-3.245207E-015));
#356=CARTESIAN_POINT('',(-8.627831650400363,-28.100000000000005,-3.441144E-015));
#357=CARTESIAN_POINT('',(-8.627831650400363,-29.700000000000017,-3.637081E-015));
#358=CARTESIAN_POINT('',(-7.027831650400350,-29.700000000000017,-3.637081E-015));
#359=CARTESIAN_POINT('',(-7.027831650400350,-26.499999999999982,-26.499999999999993));
#360=CARTESIAN_POINT('',(-8.627831650400363,-26.499999999999982,-26.499999999999989));
#361=CARTESIAN_POINT('',(-8.627831650400363,-28.099999999999994,-28.100000000000001));
#362=CARTESIAN_POINT('',(-8.627831650400363,-29.700000000000006,-29.700000000000014));
#363=CARTESIAN_POINT('',(-7.027831650400350,-29.700000000000006,-29.700000000000014));
#364=CARTESIAN_POINT('',(-7.027831650400350,3.245207E-015,-26.499999999999993));
#365=CARTESIAN_POINT('',(-8.627831650400363,3.245207E-015,-26.499999999999989));
#366=CARTESIAN_POINT('',(-8.627831650400363,3.441144E-015,-28.100000000000005));
#367=CARTESIAN_POINT('',(-8.627831650400363,3.637081E-015,-29.700000000000017));
#368=CARTESIAN_POINT('',(-7.027831650400350,3.637081E-015,-29.700000000000017));
#369=CARTESIAN_POINT('',(-7.027831650400350,26.499999999999993,-26.499999999999982));
#370=CARTESIAN_POINT('',(-8.627831650400363,26.499999999999989,-26.499999999999982));
#371=CARTESIAN_POINT('',(-8.627831650400363,28.100000000000001,-28.099999999999994));
#372=CARTESIAN_POINT('',(-8.627831650400363,29.700000000000014,-29.700000000000006));
#373=CARTESIAN_POINT('',(-7.027831650400350,29.700000000000014,-29.700000000000006));
#374=CARTESIAN_POINT('',(-7.027831650400350,26.499999999999993,3.245207E-015));
#375=CARTESIAN_POINT('',(-8.627831650400363,26.499999999999989,3.245207E-015));
#376=CARTESIAN_POINT('',(-8.627831650400363,28.100000000000005,3.441144E-015));
#377=CARTESIAN_POINT('',(-8.627831650400363,29.700000000000017,3.637081E-015));
#378=CARTESIAN_POINT('',(-7.027831650400350,29.700000000000017,3.637081E-015));
#379=CARTESIAN_POINT('',(-7.027831650400350,26.499999999999982,26.499999999999993));
#380=CARTESIAN_POINT('',(-8.627831650400363,26.499999999999982,26.499999999999989));
#381=CARTESIAN_POINT('',(-8.627831650400363,28.099999999999994,28.100000000000001));
#382=CARTESIAN_POINT('',(-8.627831650400363,29.700000000000006,29.700000000000014));
#383=CARTESIAN_POINT('',(-7.027831650400350,29.700000000000006,29.700000000000014));
#384=CARTESIAN_POINT('',(-7.027831650400350,-3.245207E-015,26.499999999999993));
#385=CARTESIAN_POINT('',(-8.627831650400363,-3.245207E-015,26.499999999999989));
#386=CARTESIAN_POINT('',(-8.627831650400363,-3.441144E-015,28.100000000000005));
#387=CARTESIAN_POINT('',(-8.627831650400363,-3.637081E-015,29.700000000000017));
#388=CARTESIAN_POINT('',(-7.027831650400350,-3.637081E-015,29.700000000000017));
#396=(BOUNDED_SURFACE()B_SPLINE_SURFACE(2,2,((#344,#349,#354,#359,#364,#369,#374,#379,#384),(#345,#350,#355,#360,#365,#370,#375,#380,#385),(#346,#351,#356,#361,#366,#371,#376,#381,#386),(#347,#352,#357,#362,#367,#372,#377,#382,#387),(#348,#353,#358,#363,#368,#373,#378,#383,#388)),.UNSPECIFIED.,.F.,.T.,.U.)B_SPLINE_SURFACE_WITH_KNOTS((3,2,3),(3,2,2,2,3),(-3.141592653589794,-1.570796326794897,5.551115E-016),(0.0,1.570796326794897,3.141592653589793,4.712388980384690,6.283185307179586),.UNSPECIFIED.)GEOMETRIC_REPRESENTATION_ITEM()RATIONAL_B_SPLINE_SURFACE(((1.0,0.707106781186548,1.0,0.707106781186548,1.0,0.707106781186548,1.0,0.707106781186548,1.0),(0.707106781186548,0.500000000000000,0.707106781186548,0.500000000000000,0.707106781186548,0.500000000000000,0.707106781186548,0.500000000000000,0.707106781186548),(1.0,0.707106781186548,1.0,0.707106781186548,1.0,0.707106781186548,1.0,0.707106781186548,1.0),(0.707106781186545,0.499999999999998,0.707106781186545,0.499999999999998,0.707106781186545,0.499999999999998,0.707106781186545,0.499999999999998,0.707106781186545),(1.0,0.707106781186548,1.0,0.707106781186548,1.0,0.707106781186548,1.0,0.707106781186548,1.0)))REPRESENTATION_ITEM('')SURFACE());
#397=CARTESIAN_POINT('',(-7.027831650400350,26.500000000000004,0.0));
#398=VERTEX_POINT('',#397);
#399=CARTESIAN_POINT('',(-7.027831650400350,0.0,0.0));
#400=DIRECTION('',(1.0,0.0,0.0));
#401=DIRECTION('',(0.0,1.0,0.0));
#402=AXIS2_PLACEMENT_3D('',#399,#400,#401);
#403=CIRCLE('',#402,26.500000000000004);
#404=EDGE_CURVE('',#398,#398,#403,.T.);
#405=ORIENTED_EDGE('',*,*,#404,.F.);
#406=EDGE_LOOP('',(#405));
#407=FACE_OUTER_BOUND('',#406,.T.);
#408=ORIENTED_EDGE('',*,*,#336,.T.);
#409=EDGE_LOOP('',(#408));
#410=FACE_BOUND('',#409,.T.);
#411=ADVANCED_FACE('',(#407,#410),#396,.T.);
#412=CARTESIAN_POINT('',(-3.513915825200175,0.0,0.0));
#413=DIRECTION('',(1.0,0.0,0.0));
#414=DIRECTION('',(0.0,1.0,0.0));
#415=AXIS2_PLACEMENT_3D('',#412,#413,#414);
#416=CYLINDRICAL_SURFACE('',#415,26.500000000000004);
#417=CARTESIAN_POINT('',(-1.110223E-015,26.500000000000004,0.0));
#418=VERTEX_POINT('',#417);
#419=CARTESIAN_POINT('',(-1.110223E-015,0.0,0.0));
#420=DIRECTION('',(1.0,0.0,0.0));
#421=DIRECTION('',(0.0,1.0,0.0));
#422=AXIS2_PLACEMENT_3D('',#419,#420,#421);
#423=CIRCLE('',#422,26.500000000000004);
#424=EDGE_CURVE('',#418,#418,#423,.T.);
#425=ORIENTED_EDGE('',*,*,#424,.F.);
#426=EDGE_LOOP('',(#425));
#427=FACE_OUTER_BOUND('',#426,.T.);
#428=ORIENTED_EDGE('',*,*,#404,.T.);
#429=EDGE_LOOP('',(#428));
#430=FACE_BOUND('',#429,.T.);
#431=ADVANCED_FACE('',(#427,#430),#416,.T.);
#432=CARTESIAN_POINT('',(-5.551115E-016,25.750000000000007,0.0));
#433=DIRECTION('',(1.0,0.0,0.0));
#434=DIRECTION('',(0.0,0.0,-1.0));
#435=AXIS2_PLACEMENT_3D('',#432,#433,#434);
#436=PLANE('',#435);
#437=ORIENTED_EDGE('',*,*,#424,.T.);
#438=EDGE_LOOP('',(#437));
#439=FACE_OUTER_BOUND('',#438,.T.);
#440=ORIENTED_EDGE('',*,*,#91,.F.);
#441=EDGE_LOOP('',(#440));
#442=FACE_BOUND('',#441,.T.);
#443=ADVANCED_FACE('',(#439,#442),#436,.T.);
#444=CLOSED_SHELL('',(#95,#115,#135,#155,#223,#243,#263,#283,#303,#323,#343,#411,#431,#443));
#445=MANIFOLD_SOLID_BREP('',#444);
#446=COLOUR_RGB('Metall - Stahl',0.639216005802155,0.639216005802155,0.686275005340576);
#447=FILL_AREA_STYLE_COLOUR('Metall - Stahl',#446);
#448=FILL_AREA_STYLE('Metall - Stahl',(#447));
#449=SURFACE_STYLE_FILL_AREA(#448);
#450=SURFACE_SIDE_STYLE('Metall - Stahl',(#449));
#451=SURFACE_STYLE_USAGE(.BOTH.,#450);
#452=PRESENTATION_STYLE_ASSIGNMENT((#451));
#453=STYLED_ITEM('',(#452),#445);
#454=MECHANICAL_DESIGN_GEOMETRIC_PRESENTATION_REPRESENTATION('',(#453),#36);
#455=ADVANCED_BREP_SHAPE_REPRESENTATION('ABSR',(#445),#36);
#456=SHAPE_REPRESENTATION_RELATIONSHIP('SRR','None',#455,#41);
ENDSEC;
END-ISO-10303-21;
